ISO-10303-21;
HEADER;
/* Generated by software containing ST-Developer
 * from STEP Tools, Inc. (www.steptools.com) 
 */

FILE_DESCRIPTION(
/* description */ (''),
/* implementation_level */ '2;1');

FILE_NAME(
/* name */ 
'C:\\V\\Delavan\\Designs\\Customer Shell Models\\Valves\\W61\\102789.s
tp',
/* time_stamp */ '2021-03-15T14:36:47-05:00',
/* author */ ('FA67NH'),
/* organization */ (''),
/* preprocessor_version */ 'ST-DEVELOPER v18.1',
/* originating_system */ 'Autodesk Inventor 2020',
/* authorisation */ '');

FILE_SCHEMA (('AUTOMOTIVE_DESIGN { 1 0 10303 214 3 1 1 }'));
ENDSEC;

DATA;
#10=MECHANICAL_DESIGN_GEOMETRIC_PRESENTATION_REPRESENTATION('',(#13),#424);
#11=SHAPE_REPRESENTATION_RELATIONSHIP('SRR','None',#434,#12);
#12=ADVANCED_BREP_SHAPE_REPRESENTATION('',(#14),#423);
#13=STYLED_ITEM('',(#443),#14);
#14=MANIFOLD_SOLID_BREP('Solid1',#219);
#15=CONICAL_SURFACE('',#272,1.96875,1.22173047639603);
#16=TOROIDAL_SURFACE('',#264,1.905,0.03);
#17=SPHERICAL_SURFACE('',#256,2.562);
#18=FACE_BOUND('',#56,.T.);
#19=FACE_BOUND('',#58,.T.);
#20=FACE_BOUND('',#61,.T.);
#21=FACE_BOUND('',#62,.T.);
#22=FACE_BOUND('',#64,.T.);
#23=LINE('',#363,#28);
#24=LINE('',#371,#29);
#25=LINE('',#412,#30);
#26=LINE('',#418,#31);
#27=LINE('',#420,#32);
#28=VECTOR('',#284,1.5);
#29=VECTOR('',#295,1.5);
#30=VECTOR('',#346,1.875);
#31=VECTOR('',#353,1.96875);
#32=VECTOR('',#356,2.0625);
#33=CYLINDRICAL_SURFACE('',#241,1.5);
#34=CYLINDRICAL_SURFACE('',#245,1.5);
#35=CYLINDRICAL_SURFACE('',#269,1.875);
#36=CYLINDRICAL_SURFACE('',#275,2.0625);
#37=FACE_OUTER_BOUND('',#51,.T.);
#38=FACE_OUTER_BOUND('',#52,.T.);
#39=FACE_OUTER_BOUND('',#53,.T.);
#40=FACE_OUTER_BOUND('',#54,.T.);
#41=FACE_OUTER_BOUND('',#55,.T.);
#42=FACE_OUTER_BOUND('',#57,.T.);
#43=FACE_OUTER_BOUND('',#59,.T.);
#44=FACE_OUTER_BOUND('',#60,.T.);
#45=FACE_OUTER_BOUND('',#63,.T.);
#46=FACE_OUTER_BOUND('',#65,.T.);
#47=FACE_OUTER_BOUND('',#66,.T.);
#48=FACE_OUTER_BOUND('',#67,.T.);
#49=FACE_OUTER_BOUND('',#68,.T.);
#50=FACE_OUTER_BOUND('',#69,.T.);
#51=EDGE_LOOP('',(#142));
#52=EDGE_LOOP('',(#143,#144,#145,#146));
#53=EDGE_LOOP('',(#147));
#54=EDGE_LOOP('',(#148,#149,#150,#151));
#55=EDGE_LOOP('',(#152,#153));
#56=EDGE_LOOP('',(#154));
#57=EDGE_LOOP('',(#155,#156));
#58=EDGE_LOOP('',(#157));
#59=EDGE_LOOP('',(#158,#159));
#60=EDGE_LOOP('',(#160,#161,#162,#163,#164,#165));
#61=EDGE_LOOP('',(#166));
#62=EDGE_LOOP('',(#167));
#63=EDGE_LOOP('',(#168));
#64=EDGE_LOOP('',(#169,#170));
#65=EDGE_LOOP('',(#171));
#66=EDGE_LOOP('',(#172,#173,#174,#175,#176,#177,#178));
#67=EDGE_LOOP('',(#179,#180,#181,#182,#183,#184,#185));
#68=EDGE_LOOP('',(#186,#187,#188,#189,#190,#191));
#69=EDGE_LOOP('',(#192,#193,#194,#195,#196,#197));
#70=CIRCLE('',#240,1.5);
#71=CIRCLE('',#242,1.5);
#72=CIRCLE('',#244,1.5);
#73=CIRCLE('',#246,1.5);
#74=CIRCLE('',#248,1.51916918083537);
#75=CIRCLE('',#249,1.51916918083537);
#76=CIRCLE('',#251,1.51916918083537);
#77=CIRCLE('',#252,1.51916918083537);
#78=CIRCLE('',#254,2.0625);
#79=CIRCLE('',#255,2.0625);
#80=CIRCLE('',#257,2.562);
#81=CIRCLE('',#258,1.92992720069955);
#82=CIRCLE('',#259,2.05124815661099);
#83=CIRCLE('',#261,1.905);
#84=CIRCLE('',#262,1.905);
#85=CIRCLE('',#265,0.03);
#86=CIRCLE('',#266,1.875);
#87=CIRCLE('',#267,1.875);
#88=CIRCLE('',#268,1.875);
#89=CIRCLE('',#270,1.875);
#90=CIRCLE('',#271,1.875);
#91=CIRCLE('',#273,2.0625);
#92=CIRCLE('',#274,2.0625);
#93=VERTEX_POINT('',#359);
#94=VERTEX_POINT('',#362);
#95=VERTEX_POINT('',#366);
#96=VERTEX_POINT('',#369);
#97=VERTEX_POINT('',#373);
#98=VERTEX_POINT('',#374);
#99=VERTEX_POINT('',#378);
#100=VERTEX_POINT('',#379);
#101=VERTEX_POINT('',#383);
#102=VERTEX_POINT('',#384);
#103=VERTEX_POINT('',#389);
#104=VERTEX_POINT('',#391);
#105=VERTEX_POINT('',#394);
#106=VERTEX_POINT('',#395);
#107=VERTEX_POINT('',#400);
#108=VERTEX_POINT('',#402);
#109=VERTEX_POINT('',#404);
#110=VERTEX_POINT('',#408);
#111=VERTEX_POINT('',#409);
#112=VERTEX_POINT('',#414);
#113=VERTEX_POINT('',#415);
#114=EDGE_CURVE('',#93,#93,#70,.T.);
#115=EDGE_CURVE('',#93,#94,#23,.T.);
#116=EDGE_CURVE('',#94,#94,#71,.T.);
#117=EDGE_CURVE('',#95,#95,#72,.T.);
#118=EDGE_CURVE('',#96,#96,#73,.T.);
#119=EDGE_CURVE('',#96,#95,#24,.T.);
#120=EDGE_CURVE('',#97,#98,#74,.T.);
#121=EDGE_CURVE('',#98,#97,#75,.T.);
#122=EDGE_CURVE('',#99,#100,#76,.T.);
#123=EDGE_CURVE('',#100,#99,#77,.T.);
#124=EDGE_CURVE('',#101,#102,#78,.T.);
#125=EDGE_CURVE('',#102,#101,#79,.T.);
#126=EDGE_CURVE('',#100,#98,#80,.T.);
#127=EDGE_CURVE('',#103,#103,#81,.T.);
#128=EDGE_CURVE('',#104,#104,#82,.T.);
#129=EDGE_CURVE('',#105,#106,#83,.T.);
#130=EDGE_CURVE('',#106,#105,#84,.T.);
#131=EDGE_CURVE('',#106,#107,#85,.T.);
#132=EDGE_CURVE('',#108,#107,#86,.T.);
#133=EDGE_CURVE('',#109,#108,#87,.T.);
#134=EDGE_CURVE('',#107,#109,#88,.T.);
#135=EDGE_CURVE('',#110,#111,#89,.T.);
#136=EDGE_CURVE('',#111,#110,#90,.T.);
#137=EDGE_CURVE('',#111,#109,#25,.T.);
#138=EDGE_CURVE('',#112,#113,#91,.T.);
#139=EDGE_CURVE('',#113,#112,#92,.T.);
#140=EDGE_CURVE('',#113,#111,#26,.T.);
#141=EDGE_CURVE('',#102,#113,#27,.T.);
#142=ORIENTED_EDGE('',*,*,#114,.T.);
#143=ORIENTED_EDGE('',*,*,#114,.F.);
#144=ORIENTED_EDGE('',*,*,#115,.T.);
#145=ORIENTED_EDGE('',*,*,#116,.F.);
#146=ORIENTED_EDGE('',*,*,#115,.F.);
#147=ORIENTED_EDGE('',*,*,#117,.F.);
#148=ORIENTED_EDGE('',*,*,#118,.F.);
#149=ORIENTED_EDGE('',*,*,#119,.T.);
#150=ORIENTED_EDGE('',*,*,#117,.T.);
#151=ORIENTED_EDGE('',*,*,#119,.F.);
#152=ORIENTED_EDGE('',*,*,#120,.T.);
#153=ORIENTED_EDGE('',*,*,#121,.T.);
#154=ORIENTED_EDGE('',*,*,#116,.T.);
#155=ORIENTED_EDGE('',*,*,#122,.T.);
#156=ORIENTED_EDGE('',*,*,#123,.T.);
#157=ORIENTED_EDGE('',*,*,#118,.T.);
#158=ORIENTED_EDGE('',*,*,#124,.T.);
#159=ORIENTED_EDGE('',*,*,#125,.T.);
#160=ORIENTED_EDGE('',*,*,#122,.F.);
#161=ORIENTED_EDGE('',*,*,#123,.F.);
#162=ORIENTED_EDGE('',*,*,#126,.T.);
#163=ORIENTED_EDGE('',*,*,#120,.F.);
#164=ORIENTED_EDGE('',*,*,#121,.F.);
#165=ORIENTED_EDGE('',*,*,#126,.F.);
#166=ORIENTED_EDGE('',*,*,#127,.T.);
#167=ORIENTED_EDGE('',*,*,#128,.F.);
#168=ORIENTED_EDGE('',*,*,#128,.T.);
#169=ORIENTED_EDGE('',*,*,#129,.F.);
#170=ORIENTED_EDGE('',*,*,#130,.F.);
#171=ORIENTED_EDGE('',*,*,#127,.F.);
#172=ORIENTED_EDGE('',*,*,#129,.T.);
#173=ORIENTED_EDGE('',*,*,#131,.T.);
#174=ORIENTED_EDGE('',*,*,#132,.F.);
#175=ORIENTED_EDGE('',*,*,#133,.F.);
#176=ORIENTED_EDGE('',*,*,#134,.F.);
#177=ORIENTED_EDGE('',*,*,#131,.F.);
#178=ORIENTED_EDGE('',*,*,#130,.T.);
#179=ORIENTED_EDGE('',*,*,#135,.F.);
#180=ORIENTED_EDGE('',*,*,#136,.F.);
#181=ORIENTED_EDGE('',*,*,#137,.T.);
#182=ORIENTED_EDGE('',*,*,#133,.T.);
#183=ORIENTED_EDGE('',*,*,#132,.T.);
#184=ORIENTED_EDGE('',*,*,#134,.T.);
#185=ORIENTED_EDGE('',*,*,#137,.F.);
#186=ORIENTED_EDGE('',*,*,#138,.F.);
#187=ORIENTED_EDGE('',*,*,#139,.F.);
#188=ORIENTED_EDGE('',*,*,#140,.T.);
#189=ORIENTED_EDGE('',*,*,#136,.T.);
#190=ORIENTED_EDGE('',*,*,#135,.T.);
#191=ORIENTED_EDGE('',*,*,#140,.F.);
#192=ORIENTED_EDGE('',*,*,#124,.F.);
#193=ORIENTED_EDGE('',*,*,#125,.F.);
#194=ORIENTED_EDGE('',*,*,#141,.T.);
#195=ORIENTED_EDGE('',*,*,#139,.T.);
#196=ORIENTED_EDGE('',*,*,#138,.T.);
#197=ORIENTED_EDGE('',*,*,#141,.F.);
#198=PLANE('',#239);
#199=PLANE('',#243);
#200=PLANE('',#247);
#201=PLANE('',#250);
#202=PLANE('',#253);
#203=PLANE('',#260);
#204=PLANE('',#263);
#205=ADVANCED_FACE('',(#37),#198,.F.);
#206=ADVANCED_FACE('',(#38),#33,.T.);
#207=ADVANCED_FACE('',(#39),#199,.T.);
#208=ADVANCED_FACE('',(#40),#34,.T.);
#209=ADVANCED_FACE('',(#41,#18),#200,.T.);
#210=ADVANCED_FACE('',(#42,#19),#201,.F.);
#211=ADVANCED_FACE('',(#43),#202,.T.);
#212=ADVANCED_FACE('',(#44,#20,#21),#17,.T.);
#213=ADVANCED_FACE('',(#45,#22),#203,.T.);
#214=ADVANCED_FACE('',(#46),#204,.T.);
#215=ADVANCED_FACE('',(#47),#16,.F.);
#216=ADVANCED_FACE('',(#48),#35,.T.);
#217=ADVANCED_FACE('',(#49),#15,.T.);
#218=ADVANCED_FACE('',(#50),#36,.T.);
#219=CLOSED_SHELL('',(#205,#206,#207,#208,#209,#210,#211,#212,#213,#214,
#215,#216,#217,#218));
#220=DERIVED_UNIT_ELEMENT(#222,1.);
#221=DERIVED_UNIT_ELEMENT(#428,3.);
#222=(
MASS_UNIT()
NAMED_UNIT(*)
SI_UNIT($,.GRAM.)
);
#223=DERIVED_UNIT((#220,#221));
#224=MEASURE_REPRESENTATION_ITEM('density measure',
POSITIVE_RATIO_MEASURE(1.),#223);
#225=PROPERTY_DEFINITION_REPRESENTATION(#230,#227);
#226=PROPERTY_DEFINITION_REPRESENTATION(#231,#228);
#227=REPRESENTATION('material name',(#229),#423);
#228=REPRESENTATION('density',(#224),#423);
#229=DESCRIPTIVE_REPRESENTATION_ITEM('Generic','Generic');
#230=PROPERTY_DEFINITION('material property','material name',#436);
#231=PROPERTY_DEFINITION('material property','density of part',#436);
#232=DATE_TIME_ROLE('creation_date');
#233=APPLIED_DATE_AND_TIME_ASSIGNMENT(#234,#232,(#436));
#234=DATE_AND_TIME(#235,#236);
#235=CALENDAR_DATE(2021,15,3);
#236=LOCAL_TIME(19,34,27.,#237);
#237=COORDINATED_UNIVERSAL_TIME_OFFSET(0,0,.BEHIND.);
#238=AXIS2_PLACEMENT_3D('placement',#357,#276,#277);
#239=AXIS2_PLACEMENT_3D('',#358,#278,#279);
#240=AXIS2_PLACEMENT_3D('',#360,#280,#281);
#241=AXIS2_PLACEMENT_3D('',#361,#282,#283);
#242=AXIS2_PLACEMENT_3D('',#364,#285,#286);
#243=AXIS2_PLACEMENT_3D('',#365,#287,#288);
#244=AXIS2_PLACEMENT_3D('',#367,#289,#290);
#245=AXIS2_PLACEMENT_3D('',#368,#291,#292);
#246=AXIS2_PLACEMENT_3D('',#370,#293,#294);
#247=AXIS2_PLACEMENT_3D('',#372,#296,#297);
#248=AXIS2_PLACEMENT_3D('',#375,#298,#299);
#249=AXIS2_PLACEMENT_3D('',#376,#300,#301);
#250=AXIS2_PLACEMENT_3D('',#377,#302,#303);
#251=AXIS2_PLACEMENT_3D('',#380,#304,#305);
#252=AXIS2_PLACEMENT_3D('',#381,#306,#307);
#253=AXIS2_PLACEMENT_3D('',#382,#308,#309);
#254=AXIS2_PLACEMENT_3D('',#385,#310,#311);
#255=AXIS2_PLACEMENT_3D('',#386,#312,#313);
#256=AXIS2_PLACEMENT_3D('',#387,#314,#315);
#257=AXIS2_PLACEMENT_3D('',#388,#316,#317);
#258=AXIS2_PLACEMENT_3D('',#390,#318,#319);
#259=AXIS2_PLACEMENT_3D('',#392,#320,#321);
#260=AXIS2_PLACEMENT_3D('',#393,#322,#323);
#261=AXIS2_PLACEMENT_3D('',#396,#324,#325);
#262=AXIS2_PLACEMENT_3D('',#397,#326,#327);
#263=AXIS2_PLACEMENT_3D('',#398,#328,#329);
#264=AXIS2_PLACEMENT_3D('',#399,#330,#331);
#265=AXIS2_PLACEMENT_3D('',#401,#332,#333);
#266=AXIS2_PLACEMENT_3D('',#403,#334,#335);
#267=AXIS2_PLACEMENT_3D('',#405,#336,#337);
#268=AXIS2_PLACEMENT_3D('',#406,#338,#339);
#269=AXIS2_PLACEMENT_3D('',#407,#340,#341);
#270=AXIS2_PLACEMENT_3D('',#410,#342,#343);
#271=AXIS2_PLACEMENT_3D('',#411,#344,#345);
#272=AXIS2_PLACEMENT_3D('',#413,#347,#348);
#273=AXIS2_PLACEMENT_3D('',#416,#349,#350);
#274=AXIS2_PLACEMENT_3D('',#417,#351,#352);
#275=AXIS2_PLACEMENT_3D('',#419,#354,#355);
#276=DIRECTION('axis',(0.,0.,1.));
#277=DIRECTION('refdir',(1.,0.,0.));
#278=DIRECTION('center_axis',(-1.,0.,1.22464679914735E-16));
#279=DIRECTION('ref_axis',(1.22464679914735E-16,0.,1.));
#280=DIRECTION('center_axis',(1.,0.,-1.22464679914735E-16));
#281=DIRECTION('ref_axis',(-1.22464679914735E-16,0.,-1.));
#282=DIRECTION('center_axis',(1.,0.,-1.22464679914735E-16));
#283=DIRECTION('ref_axis',(-1.22464679914735E-16,0.,-1.));
#284=DIRECTION('',(-1.,0.,1.22464679914735E-16));
#285=DIRECTION('center_axis',(-1.,0.,1.22464679914735E-16));
#286=DIRECTION('ref_axis',(-1.22464679914735E-16,0.,-1.));
#287=DIRECTION('center_axis',(-1.,0.,1.22464679914735E-16));
#288=DIRECTION('ref_axis',(1.22464679914735E-16,0.,1.));
#289=DIRECTION('center_axis',(1.,0.,-1.22464679914735E-16));
#290=DIRECTION('ref_axis',(-1.22464679914735E-16,0.,-1.));
#291=DIRECTION('center_axis',(1.,0.,-1.22464679914735E-16));
#292=DIRECTION('ref_axis',(-1.22464679914735E-16,0.,-1.));
#293=DIRECTION('center_axis',(1.,0.,-1.22464679914735E-16));
#294=DIRECTION('ref_axis',(-1.22464679914735E-16,0.,-1.));
#295=DIRECTION('',(-1.,0.,1.22464679914735E-16));
#296=DIRECTION('center_axis',(1.,0.,-1.22464679914735E-16));
#297=DIRECTION('ref_axis',(-1.22464679914735E-16,0.,-1.));
#298=DIRECTION('center_axis',(1.,0.,-1.22464679914735E-16));
#299=DIRECTION('ref_axis',(0.,-1.,0.));
#300=DIRECTION('center_axis',(1.,0.,-1.22464679914735E-16));
#301=DIRECTION('ref_axis',(0.,-1.,0.));
#302=DIRECTION('center_axis',(1.,0.,-1.22464679914735E-16));
#303=DIRECTION('ref_axis',(-1.22464679914735E-16,0.,-1.));
#304=DIRECTION('center_axis',(-1.,0.,1.22464679914735E-16));
#305=DIRECTION('ref_axis',(0.,1.,0.));
#306=DIRECTION('center_axis',(-1.,0.,1.22464679914735E-16));
#307=DIRECTION('ref_axis',(0.,1.,0.));
#308=DIRECTION('center_axis',(0.,1.,0.));
#309=DIRECTION('ref_axis',(-1.,0.,1.22464679914735E-16));
#310=DIRECTION('center_axis',(0.,1.,0.));
#311=DIRECTION('ref_axis',(1.22464679914735E-16,0.,1.));
#312=DIRECTION('center_axis',(0.,1.,0.));
#313=DIRECTION('ref_axis',(1.22464679914735E-16,0.,1.));
#314=DIRECTION('center_axis',(-1.,0.,1.83697019872103E-16));
#315=DIRECTION('ref_axis',(1.22464679914735E-16,0.,1.));
#316=DIRECTION('center_axis',(1.49975978266186E-32,-1.,1.22464679914735E-16));
#317=DIRECTION('ref_axis',(-1.22464679914735E-16,-1.22464679914735E-16,
-1.));
#318=DIRECTION('center_axis',(0.,1.,0.));
#319=DIRECTION('ref_axis',(1.22464679914735E-16,0.,1.));
#320=DIRECTION('center_axis',(0.,1.,0.));
#321=DIRECTION('ref_axis',(1.22464679914735E-16,0.,1.));
#322=DIRECTION('center_axis',(0.,1.,0.));
#323=DIRECTION('ref_axis',(-1.,0.,1.22464679914735E-16));
#324=DIRECTION('center_axis',(0.,1.,0.));
#325=DIRECTION('ref_axis',(1.22464679914735E-16,0.,1.));
#326=DIRECTION('center_axis',(0.,1.,0.));
#327=DIRECTION('ref_axis',(1.22464679914735E-16,0.,1.));
#328=DIRECTION('center_axis',(0.,-1.,0.));
#329=DIRECTION('ref_axis',(1.,0.,-1.22464679914735E-16));
#330=DIRECTION('center_axis',(0.,1.,0.));
#331=DIRECTION('ref_axis',(-1.,0.,1.22464679914735E-16));
#332=DIRECTION('center_axis',(-2.44929359829471E-16,0.,-1.));
#333=DIRECTION('ref_axis',(1.,0.,-2.44929359829471E-16));
#334=DIRECTION('center_axis',(0.,1.,0.));
#335=DIRECTION('ref_axis',(1.22464679914735E-16,0.,1.));
#336=DIRECTION('center_axis',(0.,1.,0.));
#337=DIRECTION('ref_axis',(1.22464679914735E-16,0.,1.));
#338=DIRECTION('center_axis',(0.,1.,0.));
#339=DIRECTION('ref_axis',(1.22464679914735E-16,0.,1.));
#340=DIRECTION('center_axis',(0.,1.,0.));
#341=DIRECTION('ref_axis',(1.22464679914735E-16,0.,1.));
#342=DIRECTION('center_axis',(0.,1.,0.));
#343=DIRECTION('ref_axis',(1.22464679914735E-16,0.,1.));
#344=DIRECTION('center_axis',(0.,1.,0.));
#345=DIRECTION('ref_axis',(1.22464679914735E-16,0.,1.));
#346=DIRECTION('',(0.,-1.,0.));
#347=DIRECTION('center_axis',(0.,1.,0.));
#348=DIRECTION('ref_axis',(1.22464679914735E-16,0.,1.));
#349=DIRECTION('center_axis',(0.,1.,0.));
#350=DIRECTION('ref_axis',(1.22464679914735E-16,0.,1.));
#351=DIRECTION('center_axis',(0.,1.,0.));
#352=DIRECTION('ref_axis',(1.22464679914735E-16,0.,1.));
#353=DIRECTION('',(2.3015831204557E-16,-0.342020143325669,0.939692620785908));
#354=DIRECTION('center_axis',(0.,1.,0.));
#355=DIRECTION('ref_axis',(1.22464679914735E-16,0.,1.));
#356=DIRECTION('',(0.,-1.,0.));
#357=CARTESIAN_POINT('',(0.,0.,0.));
#358=CARTESIAN_POINT('Origin',(3.265,-3.05928734198622E-17,-5.37526758590402E-16));
#359=CARTESIAN_POINT('',(3.265,1.83697019872103E-16,1.5));
#360=CARTESIAN_POINT('Origin',(3.265,0.,-3.99847179921611E-16));
#361=CARTESIAN_POINT('Origin',(2.063,0.,-2.52644634664099E-16));
#362=CARTESIAN_POINT('',(2.063,1.83697019872103E-16,1.5));
#363=CARTESIAN_POINT('',(2.063,-1.83697019872103E-16,1.5));
#364=CARTESIAN_POINT('Origin',(2.063,0.,-2.52644634664099E-16));
#365=CARTESIAN_POINT('Origin',(-3.265,-3.05928734198622E-17,2.6216760125282E-16));
#366=CARTESIAN_POINT('',(-3.265,1.83697019872103E-16,1.5));
#367=CARTESIAN_POINT('Origin',(-3.265,0.,3.99847179921611E-16));
#368=CARTESIAN_POINT('Origin',(-3.265,0.,3.99847179921611E-16));
#369=CARTESIAN_POINT('',(-2.063,1.83697019872103E-16,1.5));
#370=CARTESIAN_POINT('Origin',(-2.063,0.,2.52644634664099E-16));
#371=CARTESIAN_POINT('',(-3.265,-1.83697019872103E-16,1.5));
#372=CARTESIAN_POINT('Origin',(2.063,-1.74838271594513E-16,-2.52644634664099E-16));
#373=CARTESIAN_POINT('',(2.063,1.51916918083537,-6.66000671967652E-17));
#374=CARTESIAN_POINT('',(2.063,-1.86044567467334E-16,-1.51916918083537));
#375=CARTESIAN_POINT('Origin',(2.063,0.,-2.52644634664099E-16));
#376=CARTESIAN_POINT('Origin',(2.063,0.,-2.52644634664099E-16));
#377=CARTESIAN_POINT('Origin',(-2.063,-1.74838271594513E-16,2.52644634664099E-16));
#378=CARTESIAN_POINT('',(-2.063,-1.51916918083537,4.38689202131433E-16));
#379=CARTESIAN_POINT('',(-2.063,-1.86044567467334E-16,-1.51916918083537));
#380=CARTESIAN_POINT('Origin',(-2.063,0.,2.52644634664099E-16));
#381=CARTESIAN_POINT('Origin',(-2.063,0.,2.52644634664099E-16));
#382=CARTESIAN_POINT('Origin',(2.27084055557602E-16,2.065,1.85428203230276));
#383=CARTESIAN_POINT('',(2.52583402324142E-16,2.065,2.0625));
#384=CARTESIAN_POINT('',(-5.05166804648283E-16,2.065,-2.0625));
#385=CARTESIAN_POINT('Origin',(0.,2.065,0.));
#386=CARTESIAN_POINT('Origin',(0.,2.065,0.));
#387=CARTESIAN_POINT('Origin',(0.,0.,0.));
#388=CARTESIAN_POINT('Origin',(0.,0.,0.));
#389=CARTESIAN_POINT('',(2.36347916892412E-16,-1.685,1.92992720069955));
#390=CARTESIAN_POINT('Origin',(0.,-1.685,0.));
#391=CARTESIAN_POINT('',(1.943,1.535,-0.657548477300344));
#392=CARTESIAN_POINT('Origin',(0.,1.535,0.));
#393=CARTESIAN_POINT('Origin',(2.33295215237571E-16,1.535,1.905));
#394=CARTESIAN_POINT('',(2.33295215237571E-16,1.535,1.905));
#395=CARTESIAN_POINT('',(1.905,1.535,-4.66590430475142E-16));
#396=CARTESIAN_POINT('Origin',(0.,1.535,0.));
#397=CARTESIAN_POINT('Origin',(0.,1.535,0.));
#398=CARTESIAN_POINT('Origin',(2.36347916892412E-16,-1.685,1.92992720069955));
#399=CARTESIAN_POINT('Origin',(0.,1.565,0.));
#400=CARTESIAN_POINT('',(1.875,1.565,-4.59242549680257E-16));
#401=CARTESIAN_POINT('Origin',(1.905,1.565,-4.66590430475142E-16));
#402=CARTESIAN_POINT('',(2.29621274840129E-16,1.565,1.875));
#403=CARTESIAN_POINT('Origin',(0.,1.565,0.));
#404=CARTESIAN_POINT('',(-4.59242549680257E-16,1.565,-1.875));
#405=CARTESIAN_POINT('Origin',(0.,1.565,0.));
#406=CARTESIAN_POINT('Origin',(0.,1.565,0.));
#407=CARTESIAN_POINT('Origin',(0.,1.70937779053754,0.));
#408=CARTESIAN_POINT('',(2.29621274840129E-16,1.85375558107509,1.875));
#409=CARTESIAN_POINT('',(-4.59242549680257E-16,1.85375558107509,-1.875));
#410=CARTESIAN_POINT('Origin',(0.,1.85375558107509,0.));
#411=CARTESIAN_POINT('Origin',(0.,1.85375558107509,0.));
#412=CARTESIAN_POINT('',(-4.59242549680257E-16,1.70937779053754,-1.875));
#413=CARTESIAN_POINT('Origin',(0.,1.88787779053754,0.));
#414=CARTESIAN_POINT('',(2.52583402324142E-16,1.922,2.0625));
#415=CARTESIAN_POINT('',(-5.05166804648283E-16,1.922,-2.0625));
#416=CARTESIAN_POINT('Origin',(0.,1.922,0.));
#417=CARTESIAN_POINT('Origin',(0.,1.922,0.));
#418=CARTESIAN_POINT('',(-4.8220467716427E-16,1.88787779053754,-1.96875));
#419=CARTESIAN_POINT('Origin',(0.,1.9935,0.));
#420=CARTESIAN_POINT('',(-5.05166804648283E-16,1.9935,-2.0625));
#421=UNCERTAINTY_MEASURE_WITH_UNIT(LENGTH_MEASURE(0.000393700787401575),
#426,'DISTANCE_ACCURACY_VALUE',
'Maximum model space distance between geometric entities at asserted c
onnectivities');
#422=UNCERTAINTY_MEASURE_WITH_UNIT(LENGTH_MEASURE(0.000393700787401575),
#426,'DISTANCE_ACCURACY_VALUE',
'Maximum model space distance between geometric entities at asserted c
onnectivities');
#423=(
GEOMETRIC_REPRESENTATION_CONTEXT(3)
GLOBAL_UNCERTAINTY_ASSIGNED_CONTEXT((#421))
GLOBAL_UNIT_ASSIGNED_CONTEXT((#426,#430,#431))
REPRESENTATION_CONTEXT('','3D')
);
#424=(
GEOMETRIC_REPRESENTATION_CONTEXT(3)
GLOBAL_UNCERTAINTY_ASSIGNED_CONTEXT((#422))
GLOBAL_UNIT_ASSIGNED_CONTEXT((#426,#430,#431))
REPRESENTATION_CONTEXT('','3D')
);
#425=DIMENSIONAL_EXPONENTS(1.,0.,0.,0.,0.,0.,0.);
#426=(
CONVERSION_BASED_UNIT('inch',#429)
LENGTH_UNIT()
NAMED_UNIT(#425)
);
#427=(
LENGTH_UNIT()
NAMED_UNIT(*)
SI_UNIT(.MILLI.,.METRE.)
);
#428=(
LENGTH_UNIT()
NAMED_UNIT(*)
SI_UNIT(.CENTI.,.METRE.)
);
#429=LENGTH_MEASURE_WITH_UNIT(LENGTH_MEASURE(25.4),#427);
#430=(
NAMED_UNIT(*)
PLANE_ANGLE_UNIT()
SI_UNIT($,.RADIAN.)
);
#431=(
NAMED_UNIT(*)
SI_UNIT($,.STERADIAN.)
SOLID_ANGLE_UNIT()
);
#432=SHAPE_DEFINITION_REPRESENTATION(#433,#434);
#433=PRODUCT_DEFINITION_SHAPE('',$,#436);
#434=SHAPE_REPRESENTATION('',(#238),#423);
#435=PRODUCT_DEFINITION_CONTEXT('part definition',#440,'design');
#436=PRODUCT_DEFINITION('102789','102789',#437,#435);
#437=PRODUCT_DEFINITION_FORMATION('00',$,#442);
#438=PRODUCT_RELATED_PRODUCT_CATEGORY('102789','102789',(#442));
#439=APPLICATION_PROTOCOL_DEFINITION('international standard',
'automotive_design',2009,#440);
#440=APPLICATION_CONTEXT(
'Core Data for Automotive Mechanical Design Process');
#441=PRODUCT_CONTEXT('part definition',#440,'mechanical');
#442=PRODUCT('102789','102789',$,(#441));
#443=PRESENTATION_STYLE_ASSIGNMENT((#444));
#444=SURFACE_STYLE_USAGE(.BOTH.,#447);
#445=SURFACE_STYLE_RENDERING_WITH_PROPERTIES($,#451,(#446));
#446=SURFACE_STYLE_TRANSPARENT(0.);
#447=SURFACE_SIDE_STYLE('',(#448,#445));
#448=SURFACE_STYLE_FILL_AREA(#449);
#449=FILL_AREA_STYLE('',(#450));
#450=FILL_AREA_STYLE_COLOUR('',#451);
#451=COLOUR_RGB('',0.749019607843137,0.749019607843137,0.749019607843137);
ENDSEC;
END-ISO-10303-21;
