ISO-10303-21;
HEADER;
/* Generated by software containing ST-Developer
 * from STEP Tools, Inc. (www.steptools.com) 
 */

FILE_DESCRIPTION(
/* description */ (''),
/* implementation_level */ '2;1');

FILE_NAME(
/* name */ 
'C:\\Users\\fa67nh\\OneDrive - SPX Flow Inc\\Documents\\Inventor\\Webs
ite STEP Comparison\\From Komal\\4_28_21\\106067.STEP',
/* time_stamp */ '2021-04-28T10:12:06-05:00',
/* author */ ('FA67NH'),
/* organization */ (''),
/* preprocessor_version */ 'ST-DEVELOPER v18.1',
/* originating_system */ 'Autodesk Inventor 2020',
/* authorisation */ '');

FILE_SCHEMA (('AUTOMOTIVE_DESIGN { 1 0 10303 214 3 1 1 }'));
ENDSEC;

DATA;
#10=MECHANICAL_DESIGN_GEOMETRIC_PRESENTATION_REPRESENTATION('',(#13),#526);
#11=SHAPE_REPRESENTATION_RELATIONSHIP('SRR','None',#536,#12);
#12=ADVANCED_BREP_SHAPE_REPRESENTATION('',(#14),#525);
#13=STYLED_ITEM('',(#545),#14);
#14=MANIFOLD_SOLID_BREP('Solid1',#270);
#15=FACE_BOUND('',#70,.T.);
#16=FACE_BOUND('',#72,.T.);
#17=TOROIDAL_SURFACE('',#304,1.1975,0.0700000000000044);
#18=TOROIDAL_SURFACE('',#311,1.1975,0.0700000000000045);
#19=TOROIDAL_SURFACE('',#320,1.263,0.0150000000000002);
#20=TOROIDAL_SURFACE('',#332,1.386,0.0320000000000011);
#21=CONICAL_SURFACE('',#298,1.157,0.785398163397478);
#22=CONICAL_SURFACE('',#329,1.525,1.22173047639602);
#23=LINE('',#452,#30);
#24=LINE('',#460,#31);
#25=LINE('',#464,#32);
#26=LINE('',#476,#33);
#27=LINE('',#492,#34);
#28=LINE('',#508,#35);
#29=LINE('',#514,#36);
#30=VECTOR('',#351,1.354);
#31=VECTOR('',#360,1.157);
#32=VECTOR('',#365,1.157);
#33=VECTOR('',#380,1.1275);
#34=VECTOR('',#399,1.248);
#35=VECTOR('',#418,1.525);
#36=VECTOR('',#425,1.525);
#37=CYLINDRICAL_SURFACE('',#293,1.354);
#38=CYLINDRICAL_SURFACE('',#301,1.157);
#39=CYLINDRICAL_SURFACE('',#308,1.1275);
#40=CYLINDRICAL_SURFACE('',#315,1.248);
#41=CYLINDRICAL_SURFACE('',#324,1.525);
#42=FACE_OUTER_BOUND('',#57,.T.);
#43=FACE_OUTER_BOUND('',#58,.T.);
#44=FACE_OUTER_BOUND('',#59,.T.);
#45=FACE_OUTER_BOUND('',#60,.T.);
#46=FACE_OUTER_BOUND('',#61,.T.);
#47=FACE_OUTER_BOUND('',#62,.T.);
#48=FACE_OUTER_BOUND('',#63,.T.);
#49=FACE_OUTER_BOUND('',#64,.T.);
#50=FACE_OUTER_BOUND('',#65,.T.);
#51=FACE_OUTER_BOUND('',#66,.T.);
#52=FACE_OUTER_BOUND('',#67,.T.);
#53=FACE_OUTER_BOUND('',#68,.T.);
#54=FACE_OUTER_BOUND('',#69,.T.);
#55=FACE_OUTER_BOUND('',#71,.T.);
#56=FACE_OUTER_BOUND('',#73,.T.);
#57=EDGE_LOOP('',(#173,#174));
#58=EDGE_LOOP('',(#175,#176,#177,#178,#179,#180));
#59=EDGE_LOOP('',(#181,#182,#183,#184,#185,#186));
#60=EDGE_LOOP('',(#187,#188,#189,#190,#191,#192));
#61=EDGE_LOOP('',(#193,#194,#195,#196,#197,#198));
#62=EDGE_LOOP('',(#199,#200,#201,#202,#203,#204));
#63=EDGE_LOOP('',(#205,#206,#207,#208,#209,#210));
#64=EDGE_LOOP('',(#211,#212,#213,#214,#215,#216));
#65=EDGE_LOOP('',(#217,#218,#219,#220,#221,#222));
#66=EDGE_LOOP('',(#223,#224,#225,#226,#227,#228));
#67=EDGE_LOOP('',(#229,#230,#231,#232,#233,#234));
#68=EDGE_LOOP('',(#235,#236,#237,#238,#239,#240));
#69=EDGE_LOOP('',(#241,#242));
#70=EDGE_LOOP('',(#243,#244));
#71=EDGE_LOOP('',(#245,#246));
#72=EDGE_LOOP('',(#247,#248));
#73=EDGE_LOOP('',(#249,#250));
#74=CIRCLE('',#291,1.127);
#75=CIRCLE('',#292,1.127);
#76=CIRCLE('',#294,1.354);
#77=CIRCLE('',#295,1.354);
#78=CIRCLE('',#296,1.354);
#79=CIRCLE('',#297,1.354);
#80=CIRCLE('',#299,1.157);
#81=CIRCLE('',#300,1.157);
#82=CIRCLE('',#302,1.157);
#83=CIRCLE('',#303,1.157);
#84=CIRCLE('',#305,0.0700000000000044);
#85=CIRCLE('',#306,1.1275);
#86=CIRCLE('',#307,1.1275);
#87=CIRCLE('',#309,1.1275);
#88=CIRCLE('',#310,1.1275);
#89=CIRCLE('',#312,0.0700000000000045);
#90=CIRCLE('',#313,1.1975);
#91=CIRCLE('',#314,1.1975);
#92=CIRCLE('',#316,1.248);
#93=CIRCLE('',#317,1.248);
#94=CIRCLE('',#318,1.248);
#95=CIRCLE('',#319,1.248);
#96=CIRCLE('',#321,0.0150000000000002);
#97=CIRCLE('',#322,1.263);
#98=CIRCLE('',#323,1.263);
#99=CIRCLE('',#325,1.525);
#100=CIRCLE('',#326,1.525);
#101=CIRCLE('',#327,1.525);
#102=CIRCLE('',#328,1.525);
#103=CIRCLE('',#330,1.37505535541358);
#104=CIRCLE('',#331,1.37505535541358);
#105=CIRCLE('',#333,0.0320000000000011);
#106=VERTEX_POINT('',#442);
#107=VERTEX_POINT('',#443);
#108=VERTEX_POINT('',#447);
#109=VERTEX_POINT('',#448);
#110=VERTEX_POINT('',#451);
#111=VERTEX_POINT('',#453);
#112=VERTEX_POINT('',#457);
#113=VERTEX_POINT('',#458);
#114=VERTEX_POINT('',#463);
#115=VERTEX_POINT('',#465);
#116=VERTEX_POINT('',#469);
#117=VERTEX_POINT('',#471);
#118=VERTEX_POINT('',#475);
#119=VERTEX_POINT('',#477);
#120=VERTEX_POINT('',#481);
#121=VERTEX_POINT('',#483);
#122=VERTEX_POINT('',#487);
#123=VERTEX_POINT('',#488);
#124=VERTEX_POINT('',#491);
#125=VERTEX_POINT('',#493);
#126=VERTEX_POINT('',#497);
#127=VERTEX_POINT('',#499);
#128=VERTEX_POINT('',#503);
#129=VERTEX_POINT('',#504);
#130=VERTEX_POINT('',#507);
#131=VERTEX_POINT('',#509);
#132=VERTEX_POINT('',#513);
#133=VERTEX_POINT('',#515);
#134=EDGE_CURVE('',#106,#107,#74,.T.);
#135=EDGE_CURVE('',#107,#106,#75,.T.);
#136=EDGE_CURVE('',#108,#109,#76,.T.);
#137=EDGE_CURVE('',#109,#108,#77,.T.);
#138=EDGE_CURVE('',#109,#110,#23,.T.);
#139=EDGE_CURVE('',#110,#111,#78,.T.);
#140=EDGE_CURVE('',#111,#110,#79,.T.);
#141=EDGE_CURVE('',#112,#113,#80,.T.);
#142=EDGE_CURVE('',#113,#107,#24,.T.);
#143=EDGE_CURVE('',#113,#112,#81,.T.);
#144=EDGE_CURVE('',#112,#114,#25,.T.);
#145=EDGE_CURVE('',#114,#115,#82,.T.);
#146=EDGE_CURVE('',#115,#114,#83,.T.);
#147=EDGE_CURVE('',#114,#116,#84,.T.);
#148=EDGE_CURVE('',#116,#117,#85,.T.);
#149=EDGE_CURVE('',#117,#116,#86,.T.);
#150=EDGE_CURVE('',#116,#118,#26,.T.);
#151=EDGE_CURVE('',#118,#119,#87,.T.);
#152=EDGE_CURVE('',#119,#118,#88,.T.);
#153=EDGE_CURVE('',#118,#120,#89,.T.);
#154=EDGE_CURVE('',#120,#121,#90,.T.);
#155=EDGE_CURVE('',#121,#120,#91,.T.);
#156=EDGE_CURVE('',#122,#123,#92,.T.);
#157=EDGE_CURVE('',#123,#122,#93,.T.);
#158=EDGE_CURVE('',#123,#124,#27,.T.);
#159=EDGE_CURVE('',#124,#125,#94,.T.);
#160=EDGE_CURVE('',#125,#124,#95,.T.);
#161=EDGE_CURVE('',#124,#126,#96,.T.);
#162=EDGE_CURVE('',#126,#127,#97,.T.);
#163=EDGE_CURVE('',#127,#126,#98,.T.);
#164=EDGE_CURVE('',#128,#129,#99,.T.);
#165=EDGE_CURVE('',#129,#128,#100,.T.);
#166=EDGE_CURVE('',#129,#130,#28,.T.);
#167=EDGE_CURVE('',#130,#131,#101,.T.);
#168=EDGE_CURVE('',#131,#130,#102,.T.);
#169=EDGE_CURVE('',#130,#132,#29,.T.);
#170=EDGE_CURVE('',#132,#133,#103,.T.);
#171=EDGE_CURVE('',#133,#132,#104,.T.);
#172=EDGE_CURVE('',#132,#109,#105,.T.);
#173=ORIENTED_EDGE('',*,*,#134,.T.);
#174=ORIENTED_EDGE('',*,*,#135,.T.);
#175=ORIENTED_EDGE('',*,*,#136,.F.);
#176=ORIENTED_EDGE('',*,*,#137,.F.);
#177=ORIENTED_EDGE('',*,*,#138,.T.);
#178=ORIENTED_EDGE('',*,*,#139,.T.);
#179=ORIENTED_EDGE('',*,*,#140,.T.);
#180=ORIENTED_EDGE('',*,*,#138,.F.);
#181=ORIENTED_EDGE('',*,*,#141,.T.);
#182=ORIENTED_EDGE('',*,*,#142,.T.);
#183=ORIENTED_EDGE('',*,*,#134,.F.);
#184=ORIENTED_EDGE('',*,*,#135,.F.);
#185=ORIENTED_EDGE('',*,*,#142,.F.);
#186=ORIENTED_EDGE('',*,*,#143,.T.);
#187=ORIENTED_EDGE('',*,*,#141,.F.);
#188=ORIENTED_EDGE('',*,*,#144,.T.);
#189=ORIENTED_EDGE('',*,*,#145,.T.);
#190=ORIENTED_EDGE('',*,*,#146,.T.);
#191=ORIENTED_EDGE('',*,*,#144,.F.);
#192=ORIENTED_EDGE('',*,*,#143,.F.);
#193=ORIENTED_EDGE('',*,*,#146,.F.);
#194=ORIENTED_EDGE('',*,*,#145,.F.);
#195=ORIENTED_EDGE('',*,*,#147,.T.);
#196=ORIENTED_EDGE('',*,*,#148,.T.);
#197=ORIENTED_EDGE('',*,*,#149,.T.);
#198=ORIENTED_EDGE('',*,*,#147,.F.);
#199=ORIENTED_EDGE('',*,*,#149,.F.);
#200=ORIENTED_EDGE('',*,*,#148,.F.);
#201=ORIENTED_EDGE('',*,*,#150,.T.);
#202=ORIENTED_EDGE('',*,*,#151,.T.);
#203=ORIENTED_EDGE('',*,*,#152,.T.);
#204=ORIENTED_EDGE('',*,*,#150,.F.);
#205=ORIENTED_EDGE('',*,*,#152,.F.);
#206=ORIENTED_EDGE('',*,*,#151,.F.);
#207=ORIENTED_EDGE('',*,*,#153,.T.);
#208=ORIENTED_EDGE('',*,*,#154,.T.);
#209=ORIENTED_EDGE('',*,*,#155,.T.);
#210=ORIENTED_EDGE('',*,*,#153,.F.);
#211=ORIENTED_EDGE('',*,*,#156,.F.);
#212=ORIENTED_EDGE('',*,*,#157,.F.);
#213=ORIENTED_EDGE('',*,*,#158,.T.);
#214=ORIENTED_EDGE('',*,*,#159,.T.);
#215=ORIENTED_EDGE('',*,*,#160,.T.);
#216=ORIENTED_EDGE('',*,*,#158,.F.);
#217=ORIENTED_EDGE('',*,*,#160,.F.);
#218=ORIENTED_EDGE('',*,*,#159,.F.);
#219=ORIENTED_EDGE('',*,*,#161,.T.);
#220=ORIENTED_EDGE('',*,*,#162,.T.);
#221=ORIENTED_EDGE('',*,*,#163,.T.);
#222=ORIENTED_EDGE('',*,*,#161,.F.);
#223=ORIENTED_EDGE('',*,*,#164,.F.);
#224=ORIENTED_EDGE('',*,*,#165,.F.);
#225=ORIENTED_EDGE('',*,*,#166,.T.);
#226=ORIENTED_EDGE('',*,*,#167,.T.);
#227=ORIENTED_EDGE('',*,*,#168,.T.);
#228=ORIENTED_EDGE('',*,*,#166,.F.);
#229=ORIENTED_EDGE('',*,*,#168,.F.);
#230=ORIENTED_EDGE('',*,*,#167,.F.);
#231=ORIENTED_EDGE('',*,*,#169,.T.);
#232=ORIENTED_EDGE('',*,*,#170,.T.);
#233=ORIENTED_EDGE('',*,*,#171,.T.);
#234=ORIENTED_EDGE('',*,*,#169,.F.);
#235=ORIENTED_EDGE('',*,*,#171,.F.);
#236=ORIENTED_EDGE('',*,*,#170,.F.);
#237=ORIENTED_EDGE('',*,*,#172,.T.);
#238=ORIENTED_EDGE('',*,*,#137,.T.);
#239=ORIENTED_EDGE('',*,*,#136,.T.);
#240=ORIENTED_EDGE('',*,*,#172,.F.);
#241=ORIENTED_EDGE('',*,*,#164,.T.);
#242=ORIENTED_EDGE('',*,*,#165,.T.);
#243=ORIENTED_EDGE('',*,*,#163,.F.);
#244=ORIENTED_EDGE('',*,*,#162,.F.);
#245=ORIENTED_EDGE('',*,*,#156,.T.);
#246=ORIENTED_EDGE('',*,*,#157,.T.);
#247=ORIENTED_EDGE('',*,*,#155,.F.);
#248=ORIENTED_EDGE('',*,*,#154,.F.);
#249=ORIENTED_EDGE('',*,*,#140,.F.);
#250=ORIENTED_EDGE('',*,*,#139,.F.);
#251=PLANE('',#290);
#252=PLANE('',#334);
#253=PLANE('',#335);
#254=PLANE('',#336);
#255=ADVANCED_FACE('',(#42),#251,.T.);
#256=ADVANCED_FACE('',(#43),#37,.T.);
#257=ADVANCED_FACE('',(#44),#21,.T.);
#258=ADVANCED_FACE('',(#45),#38,.T.);
#259=ADVANCED_FACE('',(#46),#17,.F.);
#260=ADVANCED_FACE('',(#47),#39,.T.);
#261=ADVANCED_FACE('',(#48),#18,.F.);
#262=ADVANCED_FACE('',(#49),#40,.T.);
#263=ADVANCED_FACE('',(#50),#19,.F.);
#264=ADVANCED_FACE('',(#51),#41,.T.);
#265=ADVANCED_FACE('',(#52),#22,.T.);
#266=ADVANCED_FACE('',(#53),#20,.F.);
#267=ADVANCED_FACE('',(#54,#15),#252,.F.);
#268=ADVANCED_FACE('',(#55,#16),#253,.F.);
#269=ADVANCED_FACE('',(#56),#254,.F.);
#270=CLOSED_SHELL('',(#255,#256,#257,#258,#259,#260,#261,#262,#263,#264,
#265,#266,#267,#268,#269));
#271=DERIVED_UNIT_ELEMENT(#273,1.);
#272=DERIVED_UNIT_ELEMENT(#530,3.);
#273=(
MASS_UNIT()
NAMED_UNIT(*)
SI_UNIT($,.GRAM.)
);
#274=DERIVED_UNIT((#271,#272));
#275=MEASURE_REPRESENTATION_ITEM('density measure',
POSITIVE_RATIO_MEASURE(1.),#274);
#276=PROPERTY_DEFINITION_REPRESENTATION(#281,#278);
#277=PROPERTY_DEFINITION_REPRESENTATION(#282,#279);
#278=REPRESENTATION('material name',(#280),#525);
#279=REPRESENTATION('density',(#275),#525);
#280=DESCRIPTIVE_REPRESENTATION_ITEM('Generic','Generic');
#281=PROPERTY_DEFINITION('material property','material name',#538);
#282=PROPERTY_DEFINITION('material property','density of part',#538);
#283=DATE_TIME_ROLE('creation_date');
#284=APPLIED_DATE_AND_TIME_ASSIGNMENT(#285,#283,(#538));
#285=DATE_AND_TIME(#286,#287);
#286=CALENDAR_DATE(2021,28,4);
#287=LOCAL_TIME(12,42,10.,#288);
#288=COORDINATED_UNIVERSAL_TIME_OFFSET(0,0,.BEHIND.);
#289=AXIS2_PLACEMENT_3D('placement',#440,#337,#338);
#290=AXIS2_PLACEMENT_3D('',#441,#339,#340);
#291=AXIS2_PLACEMENT_3D('',#444,#341,#342);
#292=AXIS2_PLACEMENT_3D('',#445,#343,#344);
#293=AXIS2_PLACEMENT_3D('',#446,#345,#346);
#294=AXIS2_PLACEMENT_3D('',#449,#347,#348);
#295=AXIS2_PLACEMENT_3D('',#450,#349,#350);
#296=AXIS2_PLACEMENT_3D('',#454,#352,#353);
#297=AXIS2_PLACEMENT_3D('',#455,#354,#355);
#298=AXIS2_PLACEMENT_3D('',#456,#356,#357);
#299=AXIS2_PLACEMENT_3D('',#459,#358,#359);
#300=AXIS2_PLACEMENT_3D('',#461,#361,#362);
#301=AXIS2_PLACEMENT_3D('',#462,#363,#364);
#302=AXIS2_PLACEMENT_3D('',#466,#366,#367);
#303=AXIS2_PLACEMENT_3D('',#467,#368,#369);
#304=AXIS2_PLACEMENT_3D('',#468,#370,#371);
#305=AXIS2_PLACEMENT_3D('',#470,#372,#373);
#306=AXIS2_PLACEMENT_3D('',#472,#374,#375);
#307=AXIS2_PLACEMENT_3D('',#473,#376,#377);
#308=AXIS2_PLACEMENT_3D('',#474,#378,#379);
#309=AXIS2_PLACEMENT_3D('',#478,#381,#382);
#310=AXIS2_PLACEMENT_3D('',#479,#383,#384);
#311=AXIS2_PLACEMENT_3D('',#480,#385,#386);
#312=AXIS2_PLACEMENT_3D('',#482,#387,#388);
#313=AXIS2_PLACEMENT_3D('',#484,#389,#390);
#314=AXIS2_PLACEMENT_3D('',#485,#391,#392);
#315=AXIS2_PLACEMENT_3D('',#486,#393,#394);
#316=AXIS2_PLACEMENT_3D('',#489,#395,#396);
#317=AXIS2_PLACEMENT_3D('',#490,#397,#398);
#318=AXIS2_PLACEMENT_3D('',#494,#400,#401);
#319=AXIS2_PLACEMENT_3D('',#495,#402,#403);
#320=AXIS2_PLACEMENT_3D('',#496,#404,#405);
#321=AXIS2_PLACEMENT_3D('',#498,#406,#407);
#322=AXIS2_PLACEMENT_3D('',#500,#408,#409);
#323=AXIS2_PLACEMENT_3D('',#501,#410,#411);
#324=AXIS2_PLACEMENT_3D('',#502,#412,#413);
#325=AXIS2_PLACEMENT_3D('',#505,#414,#415);
#326=AXIS2_PLACEMENT_3D('',#506,#416,#417);
#327=AXIS2_PLACEMENT_3D('',#510,#419,#420);
#328=AXIS2_PLACEMENT_3D('',#511,#421,#422);
#329=AXIS2_PLACEMENT_3D('',#512,#423,#424);
#330=AXIS2_PLACEMENT_3D('',#516,#426,#427);
#331=AXIS2_PLACEMENT_3D('',#517,#428,#429);
#332=AXIS2_PLACEMENT_3D('',#518,#430,#431);
#333=AXIS2_PLACEMENT_3D('',#519,#432,#433);
#334=AXIS2_PLACEMENT_3D('',#520,#434,#435);
#335=AXIS2_PLACEMENT_3D('',#521,#436,#437);
#336=AXIS2_PLACEMENT_3D('',#522,#438,#439);
#337=DIRECTION('axis',(0.,0.,1.));
#338=DIRECTION('refdir',(1.,0.,0.));
#339=DIRECTION('center_axis',(-1.,0.,0.));
#340=DIRECTION('ref_axis',(0.,0.,1.));
#341=DIRECTION('center_axis',(-1.,0.,0.));
#342=DIRECTION('ref_axis',(0.,0.,1.));
#343=DIRECTION('center_axis',(-1.,0.,0.));
#344=DIRECTION('ref_axis',(0.,0.,1.));
#345=DIRECTION('center_axis',(-1.,0.,0.));
#346=DIRECTION('ref_axis',(0.,0.,1.));
#347=DIRECTION('center_axis',(-1.,0.,0.));
#348=DIRECTION('ref_axis',(0.,0.,1.));
#349=DIRECTION('center_axis',(-1.,0.,0.));
#350=DIRECTION('ref_axis',(0.,0.,1.));
#351=DIRECTION('',(1.,0.,0.));
#352=DIRECTION('center_axis',(-1.,0.,0.));
#353=DIRECTION('ref_axis',(0.,0.,1.));
#354=DIRECTION('center_axis',(-1.,0.,0.));
#355=DIRECTION('ref_axis',(0.,0.,1.));
#356=DIRECTION('center_axis',(1.,0.,0.));
#357=DIRECTION('ref_axis',(0.,0.,-1.));
#358=DIRECTION('center_axis',(-1.,0.,0.));
#359=DIRECTION('ref_axis',(0.,0.,1.));
#360=DIRECTION('',(-0.707106781186527,8.65956056235519E-17,-0.707106781186569));
#361=DIRECTION('center_axis',(-1.,0.,0.));
#362=DIRECTION('ref_axis',(0.,0.,1.));
#363=DIRECTION('center_axis',(-1.,0.,0.));
#364=DIRECTION('ref_axis',(0.,0.,1.));
#365=DIRECTION('',(1.,0.,0.));
#366=DIRECTION('center_axis',(-1.,0.,0.));
#367=DIRECTION('ref_axis',(0.,0.,1.));
#368=DIRECTION('center_axis',(-1.,0.,0.));
#369=DIRECTION('ref_axis',(0.,0.,1.));
#370=DIRECTION('center_axis',(-1.,0.,0.));
#371=DIRECTION('ref_axis',(0.,0.,1.));
#372=DIRECTION('center_axis',(0.,1.,-1.37939464768846E-16));
#373=DIRECTION('ref_axis',(0.,-1.37939464768846E-16,-1.));
#374=DIRECTION('center_axis',(-1.,0.,0.));
#375=DIRECTION('ref_axis',(0.,0.,1.));
#376=DIRECTION('center_axis',(-1.,0.,0.));
#377=DIRECTION('ref_axis',(0.,0.,1.));
#378=DIRECTION('center_axis',(-1.,0.,0.));
#379=DIRECTION('ref_axis',(0.,0.,1.));
#380=DIRECTION('',(1.,0.,0.));
#381=DIRECTION('center_axis',(-1.,0.,0.));
#382=DIRECTION('ref_axis',(0.,0.,1.));
#383=DIRECTION('center_axis',(-1.,0.,0.));
#384=DIRECTION('ref_axis',(0.,0.,1.));
#385=DIRECTION('center_axis',(-1.,0.,0.));
#386=DIRECTION('ref_axis',(0.,0.,1.));
#387=DIRECTION('center_axis',(0.,1.,-1.37939464768846E-16));
#388=DIRECTION('ref_axis',(0.,-1.37939464768846E-16,-1.));
#389=DIRECTION('center_axis',(-1.,0.,0.));
#390=DIRECTION('ref_axis',(0.,0.,1.));
#391=DIRECTION('center_axis',(-1.,0.,0.));
#392=DIRECTION('ref_axis',(0.,0.,1.));
#393=DIRECTION('center_axis',(-1.,0.,0.));
#394=DIRECTION('ref_axis',(0.,0.,1.));
#395=DIRECTION('center_axis',(-1.,0.,0.));
#396=DIRECTION('ref_axis',(0.,0.,1.));
#397=DIRECTION('center_axis',(-1.,0.,0.));
#398=DIRECTION('ref_axis',(0.,0.,1.));
#399=DIRECTION('',(1.,0.,0.));
#400=DIRECTION('center_axis',(-1.,0.,0.));
#401=DIRECTION('ref_axis',(0.,0.,1.));
#402=DIRECTION('center_axis',(-1.,0.,0.));
#403=DIRECTION('ref_axis',(0.,0.,1.));
#404=DIRECTION('center_axis',(-1.,0.,0.));
#405=DIRECTION('ref_axis',(0.,0.,1.));
#406=DIRECTION('center_axis',(0.,1.,-1.36806159307131E-16));
#407=DIRECTION('ref_axis',(0.,-1.36806159307131E-16,-1.));
#408=DIRECTION('center_axis',(-1.,0.,0.));
#409=DIRECTION('ref_axis',(0.,0.,1.));
#410=DIRECTION('center_axis',(-1.,0.,0.));
#411=DIRECTION('ref_axis',(0.,0.,1.));
#412=DIRECTION('center_axis',(-1.,0.,0.));
#413=DIRECTION('ref_axis',(0.,0.,1.));
#414=DIRECTION('center_axis',(-1.,0.,0.));
#415=DIRECTION('ref_axis',(0.,0.,1.));
#416=DIRECTION('center_axis',(-1.,0.,0.));
#417=DIRECTION('ref_axis',(0.,0.,1.));
#418=DIRECTION('',(1.,0.,0.));
#419=DIRECTION('center_axis',(-1.,0.,0.));
#420=DIRECTION('ref_axis',(0.,0.,1.));
#421=DIRECTION('center_axis',(-1.,0.,0.));
#422=DIRECTION('ref_axis',(0.,0.,1.));
#423=DIRECTION('center_axis',(-1.,0.,0.));
#424=DIRECTION('ref_axis',(0.,0.,1.));
#425=DIRECTION('',(0.342020143325679,1.15079156022785E-16,0.939692620785905));
#426=DIRECTION('center_axis',(-1.,0.,0.));
#427=DIRECTION('ref_axis',(0.,0.,1.));
#428=DIRECTION('center_axis',(-1.,0.,0.));
#429=DIRECTION('ref_axis',(0.,0.,1.));
#430=DIRECTION('center_axis',(-1.,0.,0.));
#431=DIRECTION('ref_axis',(0.,0.,1.));
#432=DIRECTION('center_axis',(0.,1.,-1.23299204227442E-16));
#433=DIRECTION('ref_axis',(0.,-1.23299204227442E-16,-1.));
#434=DIRECTION('center_axis',(1.,0.,0.));
#435=DIRECTION('ref_axis',(0.,0.,-1.));
#436=DIRECTION('center_axis',(1.,0.,0.));
#437=DIRECTION('ref_axis',(0.,0.,-1.));
#438=DIRECTION('center_axis',(-1.,0.,0.));
#439=DIRECTION('ref_axis',(0.,0.,1.));
#440=CARTESIAN_POINT('',(0.,0.,0.));
#441=CARTESIAN_POINT('Origin',(0.182166466300985,0.290373538323454,-6.99353086378051E-16));
#442=CARTESIAN_POINT('',(0.182166466300985,0.290373538323454,-1.127));
#443=CARTESIAN_POINT('',(0.182166466300985,0.290373538323454,1.127));
#444=CARTESIAN_POINT('Origin',(0.182166466300985,0.290373538323454,-6.99353086378051E-16));
#445=CARTESIAN_POINT('Origin',(0.182166466300985,0.290373538323454,-6.99353086378051E-16));
#446=CARTESIAN_POINT('Origin',(0.182166466300985,0.290373538323454,-6.99353086378051E-16));
#447=CARTESIAN_POINT('',(1.04081201758322,0.290373538323454,1.354));
#448=CARTESIAN_POINT('',(1.04081201758322,0.290373538323454,-1.354));
#449=CARTESIAN_POINT('Origin',(1.04081201758322,0.290373538323454,-6.99353086378051E-16));
#450=CARTESIAN_POINT('Origin',(1.04081201758322,0.290373538323454,-6.99353086378051E-16));
#451=CARTESIAN_POINT('',(1.34516646630099,0.290373538323454,-1.354));
#452=CARTESIAN_POINT('',(0.182166466300985,0.290373538323454,-1.354));
#453=CARTESIAN_POINT('',(1.34516646630099,0.290373538323454,1.354));
#454=CARTESIAN_POINT('Origin',(1.34516646630099,0.290373538323454,-6.99353086378051E-16));
#455=CARTESIAN_POINT('Origin',(1.34516646630099,0.290373538323454,-6.99353086378051E-16));
#456=CARTESIAN_POINT('Origin',(0.212166466300984,0.290373538323454,-6.99353086378051E-16));
#457=CARTESIAN_POINT('',(0.212166466300984,0.290373538323454,-1.157));
#458=CARTESIAN_POINT('',(0.212166466300984,0.290373538323454,1.157));
#459=CARTESIAN_POINT('Origin',(0.212166466300984,0.290373538323454,-6.99353086378051E-16));
#460=CARTESIAN_POINT('',(0.212166466300984,0.290373538323454,1.157));
#461=CARTESIAN_POINT('Origin',(0.212166466300984,0.290373538323454,-6.99353086378051E-16));
#462=CARTESIAN_POINT('Origin',(0.182166466300985,0.290373538323454,-6.99353086378051E-16));
#463=CARTESIAN_POINT('',(0.232072245927985,0.290373538323454,-1.157));
#464=CARTESIAN_POINT('',(0.182166466300985,0.290373538323454,-1.157));
#465=CARTESIAN_POINT('',(0.232072245927985,0.290373538323454,1.157));
#466=CARTESIAN_POINT('Origin',(0.232072245927985,0.290373538323454,-6.99353086378051E-16));
#467=CARTESIAN_POINT('Origin',(0.232072245927985,0.290373538323454,-6.99353086378051E-16));
#468=CARTESIAN_POINT('Origin',(0.289166466300981,0.290373538323454,-6.99353086378051E-16));
#469=CARTESIAN_POINT('',(0.289166466300981,0.290373538323454,-1.1275));
#470=CARTESIAN_POINT('Origin',(0.289166466300981,0.290373538323454,-1.1975));
#471=CARTESIAN_POINT('',(0.289166466300981,0.290373538323454,1.1275));
#472=CARTESIAN_POINT('Origin',(0.289166466300981,0.290373538323454,-6.99353086378051E-16));
#473=CARTESIAN_POINT('Origin',(0.289166466300981,0.290373538323454,-6.99353086378051E-16));
#474=CARTESIAN_POINT('Origin',(0.182166466300985,0.290373538323454,-6.99353086378051E-16));
#475=CARTESIAN_POINT('',(0.309166466300981,0.290373538323454,-1.1275));
#476=CARTESIAN_POINT('',(0.182166466300985,0.290373538323454,-1.1275));
#477=CARTESIAN_POINT('',(0.309166466300981,0.290373538323454,1.1275));
#478=CARTESIAN_POINT('Origin',(0.309166466300981,0.290373538323454,-6.99353086378051E-16));
#479=CARTESIAN_POINT('Origin',(0.309166466300981,0.290373538323454,-6.99353086378051E-16));
#480=CARTESIAN_POINT('Origin',(0.309166466300981,0.290373538323454,-6.99353086378051E-16));
#481=CARTESIAN_POINT('',(0.379166466300985,0.290373538323454,-1.1975));
#482=CARTESIAN_POINT('Origin',(0.309166466300981,0.290373538323454,-1.1975));
#483=CARTESIAN_POINT('',(0.379166466300985,0.290373538323454,1.1975));
#484=CARTESIAN_POINT('Origin',(0.379166466300985,0.290373538323454,-6.99353086378051E-16));
#485=CARTESIAN_POINT('Origin',(0.379166466300985,0.290373538323454,-6.99353086378051E-16));
#486=CARTESIAN_POINT('Origin',(0.182166466300985,0.290373538323454,-6.99353086378051E-16));
#487=CARTESIAN_POINT('',(0.379166466300985,0.290373538323454,1.248));
#488=CARTESIAN_POINT('',(0.379166466300985,0.290373538323454,-1.248));
#489=CARTESIAN_POINT('Origin',(0.379166466300985,0.290373538323454,-6.99353086378051E-16));
#490=CARTESIAN_POINT('Origin',(0.379166466300985,0.290373538323454,-6.99353086378051E-16));
#491=CARTESIAN_POINT('',(0.798166466300985,0.290373538323454,-1.248));
#492=CARTESIAN_POINT('',(0.182166466300985,0.290373538323454,-1.248));
#493=CARTESIAN_POINT('',(0.798166466300985,0.290373538323454,1.248));
#494=CARTESIAN_POINT('Origin',(0.798166466300985,0.290373538323454,-6.99353086378051E-16));
#495=CARTESIAN_POINT('Origin',(0.798166466300985,0.290373538323454,-6.99353086378051E-16));
#496=CARTESIAN_POINT('Origin',(0.798166466300985,0.290373538323454,-6.99353086378051E-16));
#497=CARTESIAN_POINT('',(0.813166466300985,0.290373538323454,-1.263));
#498=CARTESIAN_POINT('Origin',(0.798166466300985,0.290373538323454,-1.263));
#499=CARTESIAN_POINT('',(0.813166466300986,0.290373538323454,1.263));
#500=CARTESIAN_POINT('Origin',(0.813166466300985,0.290373538323454,-6.99353086378051E-16));
#501=CARTESIAN_POINT('Origin',(0.813166466300985,0.290373538323454,-6.99353086378051E-16));
#502=CARTESIAN_POINT('Origin',(0.182166466300985,0.290373538323454,-6.99353086378051E-16));
#503=CARTESIAN_POINT('',(0.813166466300985,0.290373538323454,1.525));
#504=CARTESIAN_POINT('',(0.813166466300985,0.290373538323454,-1.525));
#505=CARTESIAN_POINT('Origin',(0.813166466300985,0.290373538323454,-6.99353086378051E-16));
#506=CARTESIAN_POINT('Origin',(0.813166466300985,0.290373538323454,-6.99353086378051E-16));
#507=CARTESIAN_POINT('',(0.956166466300985,0.290373538323454,-1.525));
#508=CARTESIAN_POINT('',(0.182166466300985,0.290373538323454,-1.525));
#509=CARTESIAN_POINT('',(0.956166466300985,0.290373538323454,1.525));
#510=CARTESIAN_POINT('Origin',(0.956166466300985,0.290373538323454,-6.99353086378051E-16));
#511=CARTESIAN_POINT('Origin',(0.956166466300985,0.290373538323454,-6.99353086378051E-16));
#512=CARTESIAN_POINT('Origin',(0.956166466300985,0.290373538323454,-6.99353086378051E-16));
#513=CARTESIAN_POINT('',(1.01074185371807,0.290373538323454,-1.37505535541358));
#514=CARTESIAN_POINT('',(0.956166466300985,0.290373538323454,-1.525));
#515=CARTESIAN_POINT('',(1.01074185371807,0.290373538323454,1.37505535541358));
#516=CARTESIAN_POINT('Origin',(1.01074185371807,0.290373538323454,-6.99353086378051E-16));
#517=CARTESIAN_POINT('Origin',(1.01074185371807,0.290373538323454,-6.99353086378051E-16));
#518=CARTESIAN_POINT('Origin',(1.04081201758322,0.290373538323454,-6.99353086378051E-16));
#519=CARTESIAN_POINT('Origin',(1.04081201758322,0.290373538323454,-1.386));
#520=CARTESIAN_POINT('Origin',(0.813166466300985,0.290373538323454,-6.99353086378051E-16));
#521=CARTESIAN_POINT('Origin',(0.379166466300985,0.290373538323454,-6.99353086378051E-16));
#522=CARTESIAN_POINT('Origin',(1.34516646630099,0.290373538323454,-6.99353086378051E-16));
#523=UNCERTAINTY_MEASURE_WITH_UNIT(LENGTH_MEASURE(0.000393700787401575),
#528,'DISTANCE_ACCURACY_VALUE',
'Maximum model space distance between geometric entities at asserted c
onnectivities');
#524=UNCERTAINTY_MEASURE_WITH_UNIT(LENGTH_MEASURE(0.000393700787401575),
#528,'DISTANCE_ACCURACY_VALUE',
'Maximum model space distance between geometric entities at asserted c
onnectivities');
#525=(
GEOMETRIC_REPRESENTATION_CONTEXT(3)
GLOBAL_UNCERTAINTY_ASSIGNED_CONTEXT((#523))
GLOBAL_UNIT_ASSIGNED_CONTEXT((#528,#532,#533))
REPRESENTATION_CONTEXT('','3D')
);
#526=(
GEOMETRIC_REPRESENTATION_CONTEXT(3)
GLOBAL_UNCERTAINTY_ASSIGNED_CONTEXT((#524))
GLOBAL_UNIT_ASSIGNED_CONTEXT((#528,#532,#533))
REPRESENTATION_CONTEXT('','3D')
);
#527=DIMENSIONAL_EXPONENTS(1.,0.,0.,0.,0.,0.,0.);
#528=(
CONVERSION_BASED_UNIT('inch',#531)
LENGTH_UNIT()
NAMED_UNIT(#527)
);
#529=(
LENGTH_UNIT()
NAMED_UNIT(*)
SI_UNIT(.MILLI.,.METRE.)
);
#530=(
LENGTH_UNIT()
NAMED_UNIT(*)
SI_UNIT(.CENTI.,.METRE.)
);
#531=LENGTH_MEASURE_WITH_UNIT(LENGTH_MEASURE(25.4),#529);
#532=(
NAMED_UNIT(*)
PLANE_ANGLE_UNIT()
SI_UNIT($,.RADIAN.)
);
#533=(
NAMED_UNIT(*)
SI_UNIT($,.STERADIAN.)
SOLID_ANGLE_UNIT()
);
#534=SHAPE_DEFINITION_REPRESENTATION(#535,#536);
#535=PRODUCT_DEFINITION_SHAPE('',$,#538);
#536=SHAPE_REPRESENTATION('',(#289),#525);
#537=PRODUCT_DEFINITION_CONTEXT('part definition',#542,'design');
#538=PRODUCT_DEFINITION('106067','106067',#539,#537);
#539=PRODUCT_DEFINITION_FORMATION('00',$,#544);
#540=PRODUCT_RELATED_PRODUCT_CATEGORY('106067','106067',(#544));
#541=APPLICATION_PROTOCOL_DEFINITION('international standard',
'automotive_design',2009,#542);
#542=APPLICATION_CONTEXT(
'Core Data for Automotive Mechanical Design Process');
#543=PRODUCT_CONTEXT('part definition',#542,'mechanical');
#544=PRODUCT('106067','106067',$,(#543));
#545=PRESENTATION_STYLE_ASSIGNMENT((#546));
#546=SURFACE_STYLE_USAGE(.BOTH.,#549);
#547=SURFACE_STYLE_RENDERING_WITH_PROPERTIES($,#553,(#548));
#548=SURFACE_STYLE_TRANSPARENT(0.);
#549=SURFACE_SIDE_STYLE('',(#550,#547));
#550=SURFACE_STYLE_FILL_AREA(#551);
#551=FILL_AREA_STYLE('',(#552));
#552=FILL_AREA_STYLE_COLOUR('',#553);
#553=COLOUR_RGB('',0.749019607843137,0.749019607843137,0.749019607843137);
ENDSEC;
END-ISO-10303-21;
