ISO-10303-21;
HEADER;
/* Generated by software containing ST-Developer
 * from STEP Tools, Inc. (www.steptools.com) 
 */

FILE_DESCRIPTION(
/* description */ (''),
/* implementation_level */ '2;1');

FILE_NAME(
/* name */ 
'C:\\Users\\fa67nh\\OneDrive - SPX Flow Inc\\Documents\\Inventor\\Webs
ite STEP Comparison\\From Komal\\W70 Series Lower Retainers\\106069.ST
EP',
/* time_stamp */ '2021-04-28T10:13:46-05:00',
/* author */ ('FA67NH'),
/* organization */ (''),
/* preprocessor_version */ 'ST-DEVELOPER v18.1',
/* originating_system */ 'Autodesk Inventor 2020',
/* authorisation */ '');

FILE_SCHEMA (('AUTOMOTIVE_DESIGN { 1 0 10303 214 3 1 1 }'));
ENDSEC;

DATA;
#10=MECHANICAL_DESIGN_GEOMETRIC_PRESENTATION_REPRESENTATION('',(#13),#586);
#11=SHAPE_REPRESENTATION_RELATIONSHIP('SRR','None',#596,#12);
#12=ADVANCED_BREP_SHAPE_REPRESENTATION('',(#14),#585);
#13=STYLED_ITEM('',(#605),#14);
#14=MANIFOLD_SOLID_BREP('Solid2',#300);
#15=FACE_BOUND('',#62,.T.);
#16=FACE_BOUND('',#66,.T.);
#17=CYLINDRICAL_SURFACE('',#334,2.062);
#18=CYLINDRICAL_SURFACE('',#345,1.783);
#19=CYLINDRICAL_SURFACE('',#356,1.6645);
#20=CYLINDRICAL_SURFACE('',#365,1.692);
#21=CYLINDRICAL_SURFACE('',#371,1.875);
#22=LINE('',#513,#29);
#23=LINE('',#519,#30);
#24=LINE('',#538,#31);
#25=LINE('',#558,#32);
#26=LINE('',#573,#33);
#27=LINE('',#576,#34);
#28=LINE('',#581,#35);
#29=VECTOR('',#403,1.97902767770679);
#30=VECTOR('',#410,2.062);
#31=VECTOR('',#433,1.783);
#32=VECTOR('',#456,1.6645);
#33=VECTOR('',#475,1.692);
#34=VECTOR('',#478,1.677);
#35=VECTOR('',#485,1.875);
#36=CONICAL_SURFACE('',#331,1.97902767770679,1.22173047639602);
#37=CONICAL_SURFACE('',#368,1.677,0.785398163397479);
#38=TOROIDAL_SURFACE('',#323,1.907,0.0320000000000008);
#39=TOROIDAL_SURFACE('',#340,1.798,0.0150000000000004);
#40=TOROIDAL_SURFACE('',#351,1.7345,0.0700000000000044);
#41=TOROIDAL_SURFACE('',#360,1.7345,0.0700000000000044);
#42=FACE_OUTER_BOUND('',#57,.T.);
#43=FACE_OUTER_BOUND('',#58,.T.);
#44=FACE_OUTER_BOUND('',#59,.T.);
#45=FACE_OUTER_BOUND('',#60,.T.);
#46=FACE_OUTER_BOUND('',#61,.T.);
#47=FACE_OUTER_BOUND('',#63,.T.);
#48=FACE_OUTER_BOUND('',#64,.T.);
#49=FACE_OUTER_BOUND('',#65,.T.);
#50=FACE_OUTER_BOUND('',#67,.T.);
#51=FACE_OUTER_BOUND('',#68,.T.);
#52=FACE_OUTER_BOUND('',#69,.T.);
#53=FACE_OUTER_BOUND('',#70,.T.);
#54=FACE_OUTER_BOUND('',#71,.T.);
#55=FACE_OUTER_BOUND('',#72,.T.);
#56=FACE_OUTER_BOUND('',#73,.T.);
#57=EDGE_LOOP('',(#191,#192));
#58=EDGE_LOOP('',(#193,#194,#195,#196,#197,#198,#199,#200));
#59=EDGE_LOOP('',(#201,#202,#203,#204,#205,#206,#207));
#60=EDGE_LOOP('',(#208,#209,#210,#211,#212,#213));
#61=EDGE_LOOP('',(#214,#215));
#62=EDGE_LOOP('',(#216,#217));
#63=EDGE_LOOP('',(#218,#219,#220,#221,#222,#223,#224));
#64=EDGE_LOOP('',(#225,#226,#227,#228,#229,#230,#231));
#65=EDGE_LOOP('',(#232,#233));
#66=EDGE_LOOP('',(#234,#235));
#67=EDGE_LOOP('',(#236,#237,#238,#239,#240,#241,#242));
#68=EDGE_LOOP('',(#243,#244,#245,#246,#247,#248,#249,#250));
#69=EDGE_LOOP('',(#251,#252,#253,#254,#255,#256,#257,#258));
#70=EDGE_LOOP('',(#259,#260,#261,#262,#263,#264,#265));
#71=EDGE_LOOP('',(#266,#267,#268,#269,#270,#271));
#72=EDGE_LOOP('',(#272,#273,#274,#275,#276,#277,#278));
#73=EDGE_LOOP('',(#279,#280));
#74=CIRCLE('',#321,1.875);
#75=CIRCLE('',#322,1.875);
#76=CIRCLE('',#324,1.89605535541358);
#77=CIRCLE('',#325,1.89605535541358);
#78=CIRCLE('',#326,1.89605535541358);
#79=CIRCLE('',#327,0.0320000000000008);
#80=CIRCLE('',#328,1.875);
#81=CIRCLE('',#329,1.875);
#82=CIRCLE('',#330,1.875);
#83=CIRCLE('',#332,2.062);
#84=CIRCLE('',#333,2.062);
#85=CIRCLE('',#335,2.062);
#86=CIRCLE('',#336,2.062);
#87=CIRCLE('',#338,1.798);
#88=CIRCLE('',#339,1.798);
#89=CIRCLE('',#341,1.783);
#90=CIRCLE('',#342,1.783);
#91=CIRCLE('',#343,1.783);
#92=CIRCLE('',#344,0.0150000000000004);
#93=CIRCLE('',#346,1.783);
#94=CIRCLE('',#347,1.783);
#95=CIRCLE('',#349,1.7345);
#96=CIRCLE('',#350,1.7345);
#97=CIRCLE('',#352,1.6645);
#98=CIRCLE('',#353,1.6645);
#99=CIRCLE('',#354,1.6645);
#100=CIRCLE('',#355,0.0700000000000044);
#101=CIRCLE('',#357,1.6645);
#102=CIRCLE('',#358,1.6645);
#103=CIRCLE('',#359,1.6645);
#104=CIRCLE('',#361,1.692);
#105=CIRCLE('',#362,1.692);
#106=CIRCLE('',#363,1.692);
#107=CIRCLE('',#364,0.0700000000000044);
#108=CIRCLE('',#366,1.692);
#109=CIRCLE('',#367,1.692);
#110=CIRCLE('',#369,1.662);
#111=CIRCLE('',#370,1.662);
#112=VERTEX_POINT('',#490);
#113=VERTEX_POINT('',#491);
#114=VERTEX_POINT('',#495);
#115=VERTEX_POINT('',#496);
#116=VERTEX_POINT('',#498);
#117=VERTEX_POINT('',#501);
#118=VERTEX_POINT('',#503);
#119=VERTEX_POINT('',#505);
#120=VERTEX_POINT('',#509);
#121=VERTEX_POINT('',#510);
#122=VERTEX_POINT('',#515);
#123=VERTEX_POINT('',#516);
#124=VERTEX_POINT('',#521);
#125=VERTEX_POINT('',#522);
#126=VERTEX_POINT('',#526);
#127=VERTEX_POINT('',#527);
#128=VERTEX_POINT('',#529);
#129=VERTEX_POINT('',#534);
#130=VERTEX_POINT('',#535);
#131=VERTEX_POINT('',#540);
#132=VERTEX_POINT('',#541);
#133=VERTEX_POINT('',#545);
#134=VERTEX_POINT('',#546);
#135=VERTEX_POINT('',#548);
#136=VERTEX_POINT('',#553);
#137=VERTEX_POINT('',#554);
#138=VERTEX_POINT('',#556);
#139=VERTEX_POINT('',#561);
#140=VERTEX_POINT('',#562);
#141=VERTEX_POINT('',#564);
#142=VERTEX_POINT('',#569);
#143=VERTEX_POINT('',#570);
#144=VERTEX_POINT('',#575);
#145=VERTEX_POINT('',#577);
#146=EDGE_CURVE('',#112,#113,#74,.T.);
#147=EDGE_CURVE('',#113,#112,#75,.T.);
#148=EDGE_CURVE('',#114,#115,#76,.T.);
#149=EDGE_CURVE('',#116,#114,#77,.T.);
#150=EDGE_CURVE('',#115,#116,#78,.T.);
#151=EDGE_CURVE('',#115,#117,#79,.T.);
#152=EDGE_CURVE('',#117,#118,#80,.T.);
#153=EDGE_CURVE('',#118,#119,#81,.T.);
#154=EDGE_CURVE('',#119,#117,#82,.T.);
#155=EDGE_CURVE('',#120,#121,#83,.T.);
#156=EDGE_CURVE('',#121,#120,#84,.T.);
#157=EDGE_CURVE('',#121,#116,#22,.T.);
#158=EDGE_CURVE('',#122,#123,#85,.T.);
#159=EDGE_CURVE('',#123,#122,#86,.T.);
#160=EDGE_CURVE('',#123,#121,#23,.T.);
#161=EDGE_CURVE('',#124,#125,#87,.T.);
#162=EDGE_CURVE('',#125,#124,#88,.T.);
#163=EDGE_CURVE('',#126,#127,#89,.T.);
#164=EDGE_CURVE('',#128,#126,#90,.T.);
#165=EDGE_CURVE('',#127,#128,#91,.T.);
#166=EDGE_CURVE('',#127,#125,#92,.T.);
#167=EDGE_CURVE('',#129,#130,#93,.T.);
#168=EDGE_CURVE('',#130,#129,#94,.T.);
#169=EDGE_CURVE('',#130,#128,#24,.T.);
#170=EDGE_CURVE('',#131,#132,#95,.T.);
#171=EDGE_CURVE('',#132,#131,#96,.T.);
#172=EDGE_CURVE('',#133,#134,#97,.T.);
#173=EDGE_CURVE('',#135,#133,#98,.T.);
#174=EDGE_CURVE('',#134,#135,#99,.T.);
#175=EDGE_CURVE('',#134,#132,#100,.T.);
#176=EDGE_CURVE('',#136,#137,#101,.T.);
#177=EDGE_CURVE('',#138,#136,#102,.T.);
#178=EDGE_CURVE('',#138,#135,#25,.T.);
#179=EDGE_CURVE('',#137,#138,#103,.T.);
#180=EDGE_CURVE('',#139,#140,#104,.T.);
#181=EDGE_CURVE('',#141,#139,#105,.T.);
#182=EDGE_CURVE('',#140,#141,#106,.T.);
#183=EDGE_CURVE('',#140,#137,#107,.T.);
#184=EDGE_CURVE('',#142,#143,#108,.T.);
#185=EDGE_CURVE('',#143,#142,#109,.T.);
#186=EDGE_CURVE('',#143,#141,#26,.T.);
#187=EDGE_CURVE('',#143,#144,#27,.T.);
#188=EDGE_CURVE('',#145,#144,#110,.T.);
#189=EDGE_CURVE('',#144,#145,#111,.T.);
#190=EDGE_CURVE('',#118,#113,#28,.T.);
#191=ORIENTED_EDGE('',*,*,#146,.F.);
#192=ORIENTED_EDGE('',*,*,#147,.F.);
#193=ORIENTED_EDGE('',*,*,#148,.F.);
#194=ORIENTED_EDGE('',*,*,#149,.F.);
#195=ORIENTED_EDGE('',*,*,#150,.F.);
#196=ORIENTED_EDGE('',*,*,#151,.T.);
#197=ORIENTED_EDGE('',*,*,#152,.T.);
#198=ORIENTED_EDGE('',*,*,#153,.T.);
#199=ORIENTED_EDGE('',*,*,#154,.T.);
#200=ORIENTED_EDGE('',*,*,#151,.F.);
#201=ORIENTED_EDGE('',*,*,#155,.F.);
#202=ORIENTED_EDGE('',*,*,#156,.F.);
#203=ORIENTED_EDGE('',*,*,#157,.T.);
#204=ORIENTED_EDGE('',*,*,#149,.T.);
#205=ORIENTED_EDGE('',*,*,#148,.T.);
#206=ORIENTED_EDGE('',*,*,#150,.T.);
#207=ORIENTED_EDGE('',*,*,#157,.F.);
#208=ORIENTED_EDGE('',*,*,#158,.F.);
#209=ORIENTED_EDGE('',*,*,#159,.F.);
#210=ORIENTED_EDGE('',*,*,#160,.T.);
#211=ORIENTED_EDGE('',*,*,#156,.T.);
#212=ORIENTED_EDGE('',*,*,#155,.T.);
#213=ORIENTED_EDGE('',*,*,#160,.F.);
#214=ORIENTED_EDGE('',*,*,#158,.T.);
#215=ORIENTED_EDGE('',*,*,#159,.T.);
#216=ORIENTED_EDGE('',*,*,#161,.F.);
#217=ORIENTED_EDGE('',*,*,#162,.F.);
#218=ORIENTED_EDGE('',*,*,#163,.F.);
#219=ORIENTED_EDGE('',*,*,#164,.F.);
#220=ORIENTED_EDGE('',*,*,#165,.F.);
#221=ORIENTED_EDGE('',*,*,#166,.T.);
#222=ORIENTED_EDGE('',*,*,#162,.T.);
#223=ORIENTED_EDGE('',*,*,#161,.T.);
#224=ORIENTED_EDGE('',*,*,#166,.F.);
#225=ORIENTED_EDGE('',*,*,#167,.F.);
#226=ORIENTED_EDGE('',*,*,#168,.F.);
#227=ORIENTED_EDGE('',*,*,#169,.T.);
#228=ORIENTED_EDGE('',*,*,#164,.T.);
#229=ORIENTED_EDGE('',*,*,#163,.T.);
#230=ORIENTED_EDGE('',*,*,#165,.T.);
#231=ORIENTED_EDGE('',*,*,#169,.F.);
#232=ORIENTED_EDGE('',*,*,#167,.T.);
#233=ORIENTED_EDGE('',*,*,#168,.T.);
#234=ORIENTED_EDGE('',*,*,#170,.F.);
#235=ORIENTED_EDGE('',*,*,#171,.F.);
#236=ORIENTED_EDGE('',*,*,#172,.F.);
#237=ORIENTED_EDGE('',*,*,#173,.F.);
#238=ORIENTED_EDGE('',*,*,#174,.F.);
#239=ORIENTED_EDGE('',*,*,#175,.T.);
#240=ORIENTED_EDGE('',*,*,#171,.T.);
#241=ORIENTED_EDGE('',*,*,#170,.T.);
#242=ORIENTED_EDGE('',*,*,#175,.F.);
#243=ORIENTED_EDGE('',*,*,#176,.F.);
#244=ORIENTED_EDGE('',*,*,#177,.F.);
#245=ORIENTED_EDGE('',*,*,#178,.T.);
#246=ORIENTED_EDGE('',*,*,#173,.T.);
#247=ORIENTED_EDGE('',*,*,#172,.T.);
#248=ORIENTED_EDGE('',*,*,#174,.T.);
#249=ORIENTED_EDGE('',*,*,#178,.F.);
#250=ORIENTED_EDGE('',*,*,#179,.F.);
#251=ORIENTED_EDGE('',*,*,#180,.F.);
#252=ORIENTED_EDGE('',*,*,#181,.F.);
#253=ORIENTED_EDGE('',*,*,#182,.F.);
#254=ORIENTED_EDGE('',*,*,#183,.T.);
#255=ORIENTED_EDGE('',*,*,#179,.T.);
#256=ORIENTED_EDGE('',*,*,#177,.T.);
#257=ORIENTED_EDGE('',*,*,#176,.T.);
#258=ORIENTED_EDGE('',*,*,#183,.F.);
#259=ORIENTED_EDGE('',*,*,#184,.F.);
#260=ORIENTED_EDGE('',*,*,#185,.F.);
#261=ORIENTED_EDGE('',*,*,#186,.T.);
#262=ORIENTED_EDGE('',*,*,#181,.T.);
#263=ORIENTED_EDGE('',*,*,#180,.T.);
#264=ORIENTED_EDGE('',*,*,#182,.T.);
#265=ORIENTED_EDGE('',*,*,#186,.F.);
#266=ORIENTED_EDGE('',*,*,#184,.T.);
#267=ORIENTED_EDGE('',*,*,#187,.T.);
#268=ORIENTED_EDGE('',*,*,#188,.F.);
#269=ORIENTED_EDGE('',*,*,#189,.F.);
#270=ORIENTED_EDGE('',*,*,#187,.F.);
#271=ORIENTED_EDGE('',*,*,#185,.T.);
#272=ORIENTED_EDGE('',*,*,#154,.F.);
#273=ORIENTED_EDGE('',*,*,#153,.F.);
#274=ORIENTED_EDGE('',*,*,#190,.T.);
#275=ORIENTED_EDGE('',*,*,#147,.T.);
#276=ORIENTED_EDGE('',*,*,#146,.T.);
#277=ORIENTED_EDGE('',*,*,#190,.F.);
#278=ORIENTED_EDGE('',*,*,#152,.F.);
#279=ORIENTED_EDGE('',*,*,#188,.T.);
#280=ORIENTED_EDGE('',*,*,#189,.T.);
#281=PLANE('',#320);
#282=PLANE('',#337);
#283=PLANE('',#348);
#284=PLANE('',#372);
#285=ADVANCED_FACE('',(#42),#281,.T.);
#286=ADVANCED_FACE('',(#43),#38,.F.);
#287=ADVANCED_FACE('',(#44),#36,.T.);
#288=ADVANCED_FACE('',(#45),#17,.T.);
#289=ADVANCED_FACE('',(#46,#15),#282,.T.);
#290=ADVANCED_FACE('',(#47),#39,.F.);
#291=ADVANCED_FACE('',(#48),#18,.T.);
#292=ADVANCED_FACE('',(#49,#16),#283,.T.);
#293=ADVANCED_FACE('',(#50),#40,.F.);
#294=ADVANCED_FACE('',(#51),#19,.T.);
#295=ADVANCED_FACE('',(#52),#41,.F.);
#296=ADVANCED_FACE('',(#53),#20,.T.);
#297=ADVANCED_FACE('',(#54),#37,.T.);
#298=ADVANCED_FACE('',(#55),#21,.T.);
#299=ADVANCED_FACE('',(#56),#284,.T.);
#300=CLOSED_SHELL('',(#285,#286,#287,#288,#289,#290,#291,#292,#293,#294,
#295,#296,#297,#298,#299));
#301=DERIVED_UNIT_ELEMENT(#303,1.);
#302=DERIVED_UNIT_ELEMENT(#590,3.);
#303=(
MASS_UNIT()
NAMED_UNIT(*)
SI_UNIT($,.GRAM.)
);
#304=DERIVED_UNIT((#301,#302));
#305=MEASURE_REPRESENTATION_ITEM('density measure',
POSITIVE_RATIO_MEASURE(1.),#304);
#306=PROPERTY_DEFINITION_REPRESENTATION(#311,#308);
#307=PROPERTY_DEFINITION_REPRESENTATION(#312,#309);
#308=REPRESENTATION('material name',(#310),#585);
#309=REPRESENTATION('density',(#305),#585);
#310=DESCRIPTIVE_REPRESENTATION_ITEM('Generic','Generic');
#311=PROPERTY_DEFINITION('material property','material name',#598);
#312=PROPERTY_DEFINITION('material property','density of part',#598);
#313=DATE_TIME_ROLE('creation_date');
#314=APPLIED_DATE_AND_TIME_ASSIGNMENT(#315,#313,(#598));
#315=DATE_AND_TIME(#316,#317);
#316=CALENDAR_DATE(2021,27,4);
#317=LOCAL_TIME(15,1,3.,#318);
#318=COORDINATED_UNIVERSAL_TIME_OFFSET(0,0,.BEHIND.);
#319=AXIS2_PLACEMENT_3D('placement',#488,#373,#374);
#320=AXIS2_PLACEMENT_3D('',#489,#375,#376);
#321=AXIS2_PLACEMENT_3D('',#492,#377,#378);
#322=AXIS2_PLACEMENT_3D('',#493,#379,#380);
#323=AXIS2_PLACEMENT_3D('',#494,#381,#382);
#324=AXIS2_PLACEMENT_3D('',#497,#383,#384);
#325=AXIS2_PLACEMENT_3D('',#499,#385,#386);
#326=AXIS2_PLACEMENT_3D('',#500,#387,#388);
#327=AXIS2_PLACEMENT_3D('',#502,#389,#390);
#328=AXIS2_PLACEMENT_3D('',#504,#391,#392);
#329=AXIS2_PLACEMENT_3D('',#506,#393,#394);
#330=AXIS2_PLACEMENT_3D('',#507,#395,#396);
#331=AXIS2_PLACEMENT_3D('',#508,#397,#398);
#332=AXIS2_PLACEMENT_3D('',#511,#399,#400);
#333=AXIS2_PLACEMENT_3D('',#512,#401,#402);
#334=AXIS2_PLACEMENT_3D('',#514,#404,#405);
#335=AXIS2_PLACEMENT_3D('',#517,#406,#407);
#336=AXIS2_PLACEMENT_3D('',#518,#408,#409);
#337=AXIS2_PLACEMENT_3D('',#520,#411,#412);
#338=AXIS2_PLACEMENT_3D('',#523,#413,#414);
#339=AXIS2_PLACEMENT_3D('',#524,#415,#416);
#340=AXIS2_PLACEMENT_3D('',#525,#417,#418);
#341=AXIS2_PLACEMENT_3D('',#528,#419,#420);
#342=AXIS2_PLACEMENT_3D('',#530,#421,#422);
#343=AXIS2_PLACEMENT_3D('',#531,#423,#424);
#344=AXIS2_PLACEMENT_3D('',#532,#425,#426);
#345=AXIS2_PLACEMENT_3D('',#533,#427,#428);
#346=AXIS2_PLACEMENT_3D('',#536,#429,#430);
#347=AXIS2_PLACEMENT_3D('',#537,#431,#432);
#348=AXIS2_PLACEMENT_3D('',#539,#434,#435);
#349=AXIS2_PLACEMENT_3D('',#542,#436,#437);
#350=AXIS2_PLACEMENT_3D('',#543,#438,#439);
#351=AXIS2_PLACEMENT_3D('',#544,#440,#441);
#352=AXIS2_PLACEMENT_3D('',#547,#442,#443);
#353=AXIS2_PLACEMENT_3D('',#549,#444,#445);
#354=AXIS2_PLACEMENT_3D('',#550,#446,#447);
#355=AXIS2_PLACEMENT_3D('',#551,#448,#449);
#356=AXIS2_PLACEMENT_3D('',#552,#450,#451);
#357=AXIS2_PLACEMENT_3D('',#555,#452,#453);
#358=AXIS2_PLACEMENT_3D('',#557,#454,#455);
#359=AXIS2_PLACEMENT_3D('',#559,#457,#458);
#360=AXIS2_PLACEMENT_3D('',#560,#459,#460);
#361=AXIS2_PLACEMENT_3D('',#563,#461,#462);
#362=AXIS2_PLACEMENT_3D('',#565,#463,#464);
#363=AXIS2_PLACEMENT_3D('',#566,#465,#466);
#364=AXIS2_PLACEMENT_3D('',#567,#467,#468);
#365=AXIS2_PLACEMENT_3D('',#568,#469,#470);
#366=AXIS2_PLACEMENT_3D('',#571,#471,#472);
#367=AXIS2_PLACEMENT_3D('',#572,#473,#474);
#368=AXIS2_PLACEMENT_3D('',#574,#476,#477);
#369=AXIS2_PLACEMENT_3D('',#578,#479,#480);
#370=AXIS2_PLACEMENT_3D('',#579,#481,#482);
#371=AXIS2_PLACEMENT_3D('',#580,#483,#484);
#372=AXIS2_PLACEMENT_3D('',#582,#486,#487);
#373=DIRECTION('axis',(0.,0.,1.));
#374=DIRECTION('refdir',(1.,0.,0.));
#375=DIRECTION('center_axis',(1.,0.,0.));
#376=DIRECTION('ref_axis',(0.,0.,-1.));
#377=DIRECTION('center_axis',(-1.,0.,0.));
#378=DIRECTION('ref_axis',(0.,0.,1.));
#379=DIRECTION('center_axis',(-1.,0.,0.));
#380=DIRECTION('ref_axis',(0.,0.,1.));
#381=DIRECTION('center_axis',(-1.,0.,0.));
#382=DIRECTION('ref_axis',(0.,0.,1.));
#383=DIRECTION('center_axis',(-1.,0.,0.));
#384=DIRECTION('ref_axis',(0.,0.,1.));
#385=DIRECTION('center_axis',(-1.,0.,0.));
#386=DIRECTION('ref_axis',(0.,0.,1.));
#387=DIRECTION('center_axis',(-1.,0.,0.));
#388=DIRECTION('ref_axis',(0.,0.,1.));
#389=DIRECTION('center_axis',(0.,1.,-1.12711624287334E-16));
#390=DIRECTION('ref_axis',(0.,-1.12711624287334E-16,-1.));
#391=DIRECTION('center_axis',(-1.,0.,0.));
#392=DIRECTION('ref_axis',(0.,0.,1.));
#393=DIRECTION('center_axis',(-1.,0.,0.));
#394=DIRECTION('ref_axis',(0.,0.,1.));
#395=DIRECTION('center_axis',(-1.,0.,0.));
#396=DIRECTION('ref_axis',(0.,0.,1.));
#397=DIRECTION('center_axis',(-1.,0.,0.));
#398=DIRECTION('ref_axis',(0.,1.,0.));
#399=DIRECTION('center_axis',(-1.,0.,0.));
#400=DIRECTION('ref_axis',(0.,0.,1.));
#401=DIRECTION('center_axis',(-1.,0.,0.));
#402=DIRECTION('ref_axis',(0.,0.,1.));
#403=DIRECTION('',(0.342020143325679,0.939692620785905,-1.15079156022785E-16));
#404=DIRECTION('center_axis',(-1.,0.,0.));
#405=DIRECTION('ref_axis',(0.,1.,0.));
#406=DIRECTION('center_axis',(-1.,0.,0.));
#407=DIRECTION('ref_axis',(0.,0.,1.));
#408=DIRECTION('center_axis',(-1.,0.,0.));
#409=DIRECTION('ref_axis',(0.,0.,1.));
#410=DIRECTION('',(1.,0.,0.));
#411=DIRECTION('center_axis',(-1.,0.,0.));
#412=DIRECTION('ref_axis',(0.,0.,1.));
#413=DIRECTION('center_axis',(-1.,0.,0.));
#414=DIRECTION('ref_axis',(0.,0.,1.));
#415=DIRECTION('center_axis',(-1.,0.,0.));
#416=DIRECTION('ref_axis',(0.,0.,1.));
#417=DIRECTION('center_axis',(-1.,0.,0.));
#418=DIRECTION('ref_axis',(0.,0.,1.));
#419=DIRECTION('center_axis',(-1.,0.,0.));
#420=DIRECTION('ref_axis',(0.,0.,1.));
#421=DIRECTION('center_axis',(-1.,0.,0.));
#422=DIRECTION('ref_axis',(0.,0.,1.));
#423=DIRECTION('center_axis',(-1.,0.,0.));
#424=DIRECTION('ref_axis',(0.,0.,1.));
#425=DIRECTION('center_axis',(0.,1.,-1.20544864585296E-16));
#426=DIRECTION('ref_axis',(0.,-1.20544864585296E-16,-1.));
#427=DIRECTION('center_axis',(-1.,0.,0.));
#428=DIRECTION('ref_axis',(0.,1.,0.));
#429=DIRECTION('center_axis',(-1.,0.,0.));
#430=DIRECTION('ref_axis',(0.,0.,1.));
#431=DIRECTION('center_axis',(-1.,0.,0.));
#432=DIRECTION('ref_axis',(0.,0.,1.));
#433=DIRECTION('',(1.,0.,0.));
#434=DIRECTION('center_axis',(-1.,0.,0.));
#435=DIRECTION('ref_axis',(0.,0.,1.));
#436=DIRECTION('center_axis',(-1.,0.,0.));
#437=DIRECTION('ref_axis',(0.,0.,1.));
#438=DIRECTION('center_axis',(-1.,0.,0.));
#439=DIRECTION('ref_axis',(0.,0.,1.));
#440=DIRECTION('center_axis',(-1.,0.,0.));
#441=DIRECTION('ref_axis',(0.,0.,1.));
#442=DIRECTION('center_axis',(-1.,0.,0.));
#443=DIRECTION('ref_axis',(0.,0.,1.));
#444=DIRECTION('center_axis',(-1.,0.,0.));
#445=DIRECTION('ref_axis',(0.,0.,1.));
#446=DIRECTION('center_axis',(-1.,0.,0.));
#447=DIRECTION('ref_axis',(0.,0.,1.));
#448=DIRECTION('center_axis',(0.,1.,-1.21112684673395E-16));
#449=DIRECTION('ref_axis',(0.,-1.21112684673395E-16,-1.));
#450=DIRECTION('center_axis',(-1.,0.,0.));
#451=DIRECTION('ref_axis',(0.,1.,0.));
#452=DIRECTION('center_axis',(-1.,0.,0.));
#453=DIRECTION('ref_axis',(0.,0.,1.));
#454=DIRECTION('center_axis',(-1.,0.,0.));
#455=DIRECTION('ref_axis',(0.,0.,1.));
#456=DIRECTION('',(1.,0.,0.));
#457=DIRECTION('center_axis',(-1.,0.,0.));
#458=DIRECTION('ref_axis',(0.,0.,1.));
#459=DIRECTION('center_axis',(-1.,0.,0.));
#460=DIRECTION('ref_axis',(0.,0.,1.));
#461=DIRECTION('center_axis',(-1.,0.,0.));
#462=DIRECTION('ref_axis',(0.,0.,1.));
#463=DIRECTION('center_axis',(-1.,0.,0.));
#464=DIRECTION('ref_axis',(0.,0.,1.));
#465=DIRECTION('center_axis',(-1.,0.,0.));
#466=DIRECTION('ref_axis',(0.,0.,1.));
#467=DIRECTION('center_axis',(0.,1.,-1.21112684673395E-16));
#468=DIRECTION('ref_axis',(0.,-1.21112684673395E-16,-1.));
#469=DIRECTION('center_axis',(-1.,0.,0.));
#470=DIRECTION('ref_axis',(0.,1.,0.));
#471=DIRECTION('center_axis',(-1.,0.,0.));
#472=DIRECTION('ref_axis',(0.,0.,1.));
#473=DIRECTION('center_axis',(-1.,0.,0.));
#474=DIRECTION('ref_axis',(0.,0.,1.));
#475=DIRECTION('',(1.,0.,0.));
#476=DIRECTION('center_axis',(1.,0.,0.));
#477=DIRECTION('ref_axis',(0.,1.,0.));
#478=DIRECTION('',(-0.707106781186526,0.707106781186569,8.6595605623552E-17));
#479=DIRECTION('center_axis',(-1.,0.,0.));
#480=DIRECTION('ref_axis',(0.,0.,1.));
#481=DIRECTION('center_axis',(-1.,0.,0.));
#482=DIRECTION('ref_axis',(0.,0.,1.));
#483=DIRECTION('center_axis',(-1.,0.,0.));
#484=DIRECTION('ref_axis',(0.,1.,0.));
#485=DIRECTION('',(1.,0.,0.));
#486=DIRECTION('center_axis',(-1.,0.,0.));
#487=DIRECTION('ref_axis',(0.,0.,1.));
#488=CARTESIAN_POINT('',(0.,0.,0.));
#489=CARTESIAN_POINT('Origin',(1.28816646630098,2.16537353832345,-6.99353086378051E-16));
#490=CARTESIAN_POINT('',(1.28816646630098,2.16537353832345,-6.99353086378051E-16));
#491=CARTESIAN_POINT('',(1.28816646630098,-1.58462646167655,-4.69731811537922E-16));
#492=CARTESIAN_POINT('Origin',(1.28816646630098,0.290373538323454,-6.99353086378051E-16));
#493=CARTESIAN_POINT('Origin',(1.28816646630098,0.290373538323454,-6.99353086378051E-16));
#494=CARTESIAN_POINT('Origin',(1.04663554133148,0.290373538323454,-6.99353086378051E-16));
#495=CARTESIAN_POINT('',(1.01656537746633,2.18642889373703,-6.99353086378051E-16));
#496=CARTESIAN_POINT('',(1.01656537746633,0.290373538323454,-1.89605535541358));
#497=CARTESIAN_POINT('Origin',(1.01656537746633,0.290373538323454,-6.99353086378051E-16));
#498=CARTESIAN_POINT('',(1.01656537746633,-1.60568181709012,-4.67153274176707E-16));
#499=CARTESIAN_POINT('Origin',(1.01656537746633,0.290373538323454,-6.99353086378051E-16));
#500=CARTESIAN_POINT('Origin',(1.01656537746633,0.290373538323454,-6.99353086378051E-16));
#501=CARTESIAN_POINT('',(1.04663554133148,0.290373538323454,-1.875));
#502=CARTESIAN_POINT('Origin',(1.04663554133148,0.290373538323454,-1.907));
#503=CARTESIAN_POINT('',(1.04663554133148,-1.58462646167655,-4.69731811537922E-16));
#504=CARTESIAN_POINT('Origin',(1.04663554133148,0.290373538323454,-6.99353086378051E-16));
#505=CARTESIAN_POINT('',(1.04663554133148,2.16537353832345,-6.99353086378051E-16));
#506=CARTESIAN_POINT('Origin',(1.04663554133148,0.290373538323454,-6.99353086378051E-16));
#507=CARTESIAN_POINT('Origin',(1.04663554133148,0.290373538323454,-6.99353086378051E-16));
#508=CARTESIAN_POINT('Origin',(0.986365921883657,0.290373538323454,-6.99353086378051E-16));
#509=CARTESIAN_POINT('',(0.956166466300986,2.35237353832345,-6.99353086378051E-16));
#510=CARTESIAN_POINT('',(0.956166466300985,-1.77162646167655,-4.46830916393867E-16));
#511=CARTESIAN_POINT('Origin',(0.956166466300986,0.290373538323454,-6.99353086378051E-16));
#512=CARTESIAN_POINT('Origin',(0.956166466300986,0.290373538323454,-6.99353086378051E-16));
#513=CARTESIAN_POINT('',(0.986365921883657,-1.68865413938334,-4.56992095285287E-16));
#514=CARTESIAN_POINT('Origin',(0.884666466300986,0.290373538323454,-6.99353086378051E-16));
#515=CARTESIAN_POINT('',(0.813166466300986,2.35237353832345,-6.99353086378051E-16));
#516=CARTESIAN_POINT('',(0.813166466300986,-1.77162646167655,-4.46830916393867E-16));
#517=CARTESIAN_POINT('Origin',(0.813166466300986,0.290373538323454,-6.99353086378051E-16));
#518=CARTESIAN_POINT('Origin',(0.813166466300986,0.290373538323454,-6.99353086378051E-16));
#519=CARTESIAN_POINT('',(0.884666466300986,-1.77162646167655,-4.46830916393867E-16));
#520=CARTESIAN_POINT('Origin',(0.813166466300986,2.08837353832345,-6.99353086378051E-16));
#521=CARTESIAN_POINT('',(0.813166466300986,2.08837353832345,-6.99353086378051E-16));
#522=CARTESIAN_POINT('',(0.813166466300986,0.290373538323454,-1.798));
#523=CARTESIAN_POINT('Origin',(0.813166466300986,0.290373538323454,-6.99353086378051E-16));
#524=CARTESIAN_POINT('Origin',(0.813166466300986,0.290373538323454,-6.99353086378051E-16));
#525=CARTESIAN_POINT('Origin',(0.798166466300986,0.290373538323454,-6.99353086378051E-16));
#526=CARTESIAN_POINT('',(0.798166466300986,2.07337353832345,-6.99353086378051E-16));
#527=CARTESIAN_POINT('',(0.798166466300986,0.290373538323454,-1.783));
#528=CARTESIAN_POINT('Origin',(0.798166466300986,0.290373538323454,-6.99353086378051E-16));
#529=CARTESIAN_POINT('',(0.798166466300986,-1.49262646167655,-4.80998562090078E-16));
#530=CARTESIAN_POINT('Origin',(0.798166466300986,0.290373538323454,-6.99353086378051E-16));
#531=CARTESIAN_POINT('Origin',(0.798166466300986,0.290373538323454,-6.99353086378051E-16));
#532=CARTESIAN_POINT('Origin',(0.798166466300986,0.290373538323454,-1.798));
#533=CARTESIAN_POINT('Origin',(0.588666466300986,0.290373538323454,-6.99353086378051E-16));
#534=CARTESIAN_POINT('',(0.379166466300986,2.07337353832345,-6.99353086378051E-16));
#535=CARTESIAN_POINT('',(0.379166466300986,-1.49262646167655,-4.80998562090078E-16));
#536=CARTESIAN_POINT('Origin',(0.379166466300986,0.290373538323454,-6.99353086378051E-16));
#537=CARTESIAN_POINT('Origin',(0.379166466300986,0.290373538323454,-6.99353086378051E-16));
#538=CARTESIAN_POINT('',(0.588666466300986,-1.49262646167655,-4.80998562090078E-16));
#539=CARTESIAN_POINT('Origin',(0.379166466300985,2.02487353832346,-6.99353086378051E-16));
#540=CARTESIAN_POINT('',(0.379166466300985,2.02487353832346,-6.99353086378051E-16));
#541=CARTESIAN_POINT('',(0.379166466300985,0.290373538323454,-1.7345));
#542=CARTESIAN_POINT('Origin',(0.379166466300985,0.290373538323454,-6.99353086378051E-16));
#543=CARTESIAN_POINT('Origin',(0.379166466300985,0.290373538323454,-6.99353086378051E-16));
#544=CARTESIAN_POINT('Origin',(0.309166466300981,0.290373538323454,-6.99353086378051E-16));
#545=CARTESIAN_POINT('',(0.309166466300981,1.95487353832345,-6.99353086378051E-16));
#546=CARTESIAN_POINT('',(0.309166466300981,0.290373538323454,-1.6645));
#547=CARTESIAN_POINT('Origin',(0.309166466300981,0.290373538323454,-6.99353086378051E-16));
#548=CARTESIAN_POINT('',(0.309166466300981,-1.37412646167655,-4.95510626659974E-16));
#549=CARTESIAN_POINT('Origin',(0.309166466300981,0.290373538323454,-6.99353086378051E-16));
#550=CARTESIAN_POINT('Origin',(0.309166466300981,0.290373538323454,-6.99353086378051E-16));
#551=CARTESIAN_POINT('Origin',(0.309166466300981,0.290373538323454,-1.7345));
#552=CARTESIAN_POINT('Origin',(0.299166466300981,0.290373538323454,-6.99353086378051E-16));
#553=CARTESIAN_POINT('',(0.289166466300981,1.95487353832345,-6.99353086378051E-16));
#554=CARTESIAN_POINT('',(0.289166466300981,0.290373538323454,-1.6645));
#555=CARTESIAN_POINT('Origin',(0.289166466300981,0.290373538323454,-6.99353086378051E-16));
#556=CARTESIAN_POINT('',(0.289166466300981,-1.37412646167655,-4.95510626659974E-16));
#557=CARTESIAN_POINT('Origin',(0.289166466300981,0.290373538323454,-6.99353086378051E-16));
#558=CARTESIAN_POINT('',(0.299166466300981,-1.37412646167655,-4.95510626659974E-16));
#559=CARTESIAN_POINT('Origin',(0.289166466300981,0.290373538323454,-6.99353086378051E-16));
#560=CARTESIAN_POINT('Origin',(0.289166466300981,0.290373538323454,-6.99353086378051E-16));
#561=CARTESIAN_POINT('',(0.233544977647761,1.98237353832345,-6.99353086378051E-16));
#562=CARTESIAN_POINT('',(0.233544977647761,0.290373538323454,-1.692));
#563=CARTESIAN_POINT('Origin',(0.233544977647761,0.290373538323454,-6.99353086378051E-16));
#564=CARTESIAN_POINT('',(0.233544977647761,-1.40162646167655,-4.92142847962319E-16));
#565=CARTESIAN_POINT('Origin',(0.233544977647761,0.290373538323454,-6.99353086378051E-16));
#566=CARTESIAN_POINT('Origin',(0.233544977647761,0.290373538323454,-6.99353086378051E-16));
#567=CARTESIAN_POINT('Origin',(0.289166466300981,0.290373538323454,-1.7345));
#568=CARTESIAN_POINT('Origin',(0.222855721974372,0.290373538323454,-6.99353086378051E-16));
#569=CARTESIAN_POINT('',(0.212166466300984,1.98237353832345,-6.99353086378051E-16));
#570=CARTESIAN_POINT('',(0.212166466300983,-1.40162646167655,-4.92142847962319E-16));
#571=CARTESIAN_POINT('Origin',(0.212166466300983,0.290373538323454,-6.99353086378051E-16));
#572=CARTESIAN_POINT('Origin',(0.212166466300983,0.290373538323454,-6.99353086378051E-16));
#573=CARTESIAN_POINT('',(0.222855721974372,-1.40162646167655,-4.92142847962319E-16));
#574=CARTESIAN_POINT('Origin',(0.197166466300984,0.290373538323454,-6.99353086378051E-16));
#575=CARTESIAN_POINT('',(0.182166466300985,-1.37162646167655,-9.02889384396341E-16));
#576=CARTESIAN_POINT('',(0.197166466300984,-1.38662646167655,-9.04726354595062E-16));
#577=CARTESIAN_POINT('',(0.182166466300985,1.95237353832345,-6.99353086378051E-16));
#578=CARTESIAN_POINT('Origin',(0.182166466300985,0.290373538323454,-6.99353086378051E-16));
#579=CARTESIAN_POINT('Origin',(0.182166466300985,0.290373538323454,-6.99353086378051E-16));
#580=CARTESIAN_POINT('Origin',(1.16740100381623,0.290373538323454,-6.99353086378051E-16));
#581=CARTESIAN_POINT('',(1.16740100381623,-1.58462646167655,-4.69731811537922E-16));
#582=CARTESIAN_POINT('Origin',(0.182166466300985,1.64287353832345,-6.99353086378051E-16));
#583=UNCERTAINTY_MEASURE_WITH_UNIT(LENGTH_MEASURE(0.000393700787401575),
#588,'DISTANCE_ACCURACY_VALUE',
'Maximum model space distance between geometric entities at asserted c
onnectivities');
#584=UNCERTAINTY_MEASURE_WITH_UNIT(LENGTH_MEASURE(0.000393700787401575),
#588,'DISTANCE_ACCURACY_VALUE',
'Maximum model space distance between geometric entities at asserted c
onnectivities');
#585=(
GEOMETRIC_REPRESENTATION_CONTEXT(3)
GLOBAL_UNCERTAINTY_ASSIGNED_CONTEXT((#583))
GLOBAL_UNIT_ASSIGNED_CONTEXT((#588,#592,#593))
REPRESENTATION_CONTEXT('','3D')
);
#586=(
GEOMETRIC_REPRESENTATION_CONTEXT(3)
GLOBAL_UNCERTAINTY_ASSIGNED_CONTEXT((#584))
GLOBAL_UNIT_ASSIGNED_CONTEXT((#588,#592,#593))
REPRESENTATION_CONTEXT('','3D')
);
#587=DIMENSIONAL_EXPONENTS(1.,0.,0.,0.,0.,0.,0.);
#588=(
CONVERSION_BASED_UNIT('inch',#591)
LENGTH_UNIT()
NAMED_UNIT(#587)
);
#589=(
LENGTH_UNIT()
NAMED_UNIT(*)
SI_UNIT(.MILLI.,.METRE.)
);
#590=(
LENGTH_UNIT()
NAMED_UNIT(*)
SI_UNIT(.CENTI.,.METRE.)
);
#591=LENGTH_MEASURE_WITH_UNIT(LENGTH_MEASURE(25.4),#589);
#592=(
NAMED_UNIT(*)
PLANE_ANGLE_UNIT()
SI_UNIT($,.RADIAN.)
);
#593=(
NAMED_UNIT(*)
SI_UNIT($,.STERADIAN.)
SOLID_ANGLE_UNIT()
);
#594=SHAPE_DEFINITION_REPRESENTATION(#595,#596);
#595=PRODUCT_DEFINITION_SHAPE('',$,#598);
#596=SHAPE_REPRESENTATION('',(#319),#585);
#597=PRODUCT_DEFINITION_CONTEXT('part definition',#602,'design');
#598=PRODUCT_DEFINITION('106069','106069',#599,#597);
#599=PRODUCT_DEFINITION_FORMATION('00',$,#604);
#600=PRODUCT_RELATED_PRODUCT_CATEGORY('106069','106069',(#604));
#601=APPLICATION_PROTOCOL_DEFINITION('international standard',
'automotive_design',2009,#602);
#602=APPLICATION_CONTEXT(
'Core Data for Automotive Mechanical Design Process');
#603=PRODUCT_CONTEXT('part definition',#602,'mechanical');
#604=PRODUCT('106069','106069',$,(#603));
#605=PRESENTATION_STYLE_ASSIGNMENT((#606));
#606=SURFACE_STYLE_USAGE(.BOTH.,#609);
#607=SURFACE_STYLE_RENDERING_WITH_PROPERTIES($,#613,(#608));
#608=SURFACE_STYLE_TRANSPARENT(0.);
#609=SURFACE_SIDE_STYLE('',(#610,#607));
#610=SURFACE_STYLE_FILL_AREA(#611);
#611=FILL_AREA_STYLE('',(#612));
#612=FILL_AREA_STYLE_COLOUR('',#613);
#613=COLOUR_RGB('',0.749019607843137,0.749019607843137,0.749019607843137);
ENDSEC;
END-ISO-10303-21;
